Life Of Agony - Hope Chords & Tabs

 

Hope Chords & Tabs

Life Of Agony Chords & Tabs

Version: 2 Type: Tab 0 ratings
1 star 2 stars 3 stars 4 stars 5 stars
comments

Hope Tab

hope

by LIFE OF AGONY
from '97 album 'soul searching sun'

transcribed by Christian Reindel (creindel@gmx.de)
any questions or corrections- e-mail me

TUNE DOWN ONE WHOLE STEP: Dropped C tuning

p.m.- palm mute note short

Intro - little bit lead guitar .... I tab it later !!!

Riff 1 
D:|--------------------------------------------------------------|
A:|--------------------------------------------------------------|
F:|--------------------------------------------------------------|
C:|--------------------------------------------------------------|
G:|-------------------------------------------------------X-X-X--|
C:|-3-3-3-3--4---3-3--3-3--3-4-3---3-3-3-3--4----3-3--3-3-X-X-X--|

 Mainriff
D:|----------------------------|
A:|----------------------------|
F:|----------------------------|
C:|----------------------------|
G:|-----3-------------3--------|
C:|-3-3---3----3-3--3---3------|
pm  . . . .    . .  . . .
[ Tab from: http://www.guitartabs.cc/tabs/l/life_of_agony/hope_tab_ver_2.html ]
Chorus - But I know  there is no hope
                            on 2. run
D:|---------------------|-------------------|
A:|--------3-----3------|-------------------|
F:|--------3---3---3----|-------------------|
C:|--------1-1-------1--|-------------------|
G:|-1-(1)---------------|-1-1-1-1-1-1-1-1-1-|
C:|-1-(1)---------------|-1-1-1-1-1-1-1-1-1-|

Riff 2 
   And you can't believe you're walking through this hell ...
D:|-------------------------------------------------------|
A:|-------------------------------------------------------|
F:|-------------------------------------------------------|
C:|-5-5-5-5-5-5-5-5-5-5-5-5-2-2-2-2-2-2-------------------|
G:|-3-3-3-3-3-3-3-3-3-3-3-3-0-0-0-0-0-0--3--3--3-3-3-3-3--|
C:|--------------------------------------3--3--3-3-3-3-3--|

Riff 3 
    And all  hope's lost         again ...
D:|----------------------------------------------------------|
A:|----------------------------------------------------------|
F:|----------------------------------------------------------|
C:|----------------------------------------------------------|
G:|--5-5-5-5-5-5-5-8-8-8-8-8-8-8-3--3--3-3--3-3-3------------|
C:|--5-5-5-5-5-5-5-8-8-8-8-8-8-8-3--3--3-3--3-3-3------------|

song structure:

intro
Riff 1 - 2 times
mainriff 
Chorus
mainriff - 2 times
Chorus
Riff 1 - 1 time
mainriff
Chorus
mainriff - 2 times
Chorus
Riff 1 - 2 times
Riff 2 - 2 times
Riff 3 - 4 times
mainriff with guitarsolo
chorus 
mainriff 
chorus
mainriff - 2 times
chorus
Riff 1 - play until the end.

end.
Comments