Life Before Toast - Crispy Guitar Chords & Tabs

 

Crispy Guitar Chords & Tabs

Life Before Toast Chords & Tabs

Version: 1 Type: Tab 0 ratings
1 star 2 stars 3 stars 4 stars 5 stars
comments

Crispy Guitar Tab

   
Guitar

Drop D Tuning - DADGBE
[ Tab from: http://www.guitartabs.cc/tabs/l/life_before_toast/crispy_guitar_tab.html ]
Intro/Verse
 |-------|-------|\|------------|
 |-------|-------|/|------------|
8|-------|-------|5|------------|
4|-6-6-6-|-9-9-9-|2|2-2-2-2-2-2-|
 |-6-6-6-|-9-9-9-|\|2-2-2-2-2-2-|
 |-6-6-6-|-9-9-9-|/|2-2-2-2-2-2-|
	Play notes every third x5 then 2nd times
	one, third x1 etc.

Chorus
 |-------|-------|\|-------------|
 |-------|-------|/|-------------|
8|-------|-------|5|-------------|
4|-6-6-6-|-2-2-2-|2|-1-1-1-1-1-1-|
 |-6-6-6-|-2-2-2-|\|-1-1-1-1-1-1-|
 |-6-6-6-|-2-2-2-|/|-1-1-1-1-1-1-|
	Strum 'em.
Comments