Life Before Toast - Crispy Bass Chords & Tabs

 

Crispy Bass Chords & Tabs

Life Before Toast Chords & Tabs

Version: 1 Type: Bass Tab 0 ratings
1 star 2 stars 3 stars 4 stars 5 stars
comments

Crispy Bass Bass Tab

Bass.
regualr tuning - EADG

Intro/verse 
 |---------|-----------|
8|---------|-----------|
4|---------|-2--2--2---|
 |-4--4--4-|-----------|
	Play notes on every 3rd note for the first two,
	then 2nd between bars 
[ Tab from: http://www.guitartabs.cc/tabs/l/life_before_toast/crispy_bass_btab.html ]
 |-------------------|
5|-------------------|
2|-------------------|
 |-0--0--0--0--0--0--|
	Every 3rd

Chorus
 
 |-------------------------|
8|-------------------------|
4|-----------2-1-1-1-1-1-1-|
 |-4-4-4-0-0---------------|
	
Comments