Lich King - Black Metal Sucks Chords & Tabs

 

Black Metal Sucks Chords & Tabs

Lich King Chords & Tabs

Version: 1 Type: Bass Tab 0 ratings
1 star 2 stars 3 stars 4 stars 5 stars
comments

Black Metal Sucks Bass Tab

Tabbed by: 6METAL6BASSIST6
E-mail: petergriffinav@gmail.com

Tuning: EADG

G|-------------------------------------------------------------------------|
D|-------------------------------------------------------------------------|
A|----------------------------3------------------------------------------3-|
E|0-----------------------------5-4-3-0-0--------------------------0-2-3---|

G|---------------------------------------------------------------|
D|---------------------------------------------------------------|
A|----4---3/4----3/4-------5---------3---3/4-----3/4-----3-------|
E|0-0---0-----0-0----0-0-0-----0-0-0---0-----0-0-----0-0---5-4-3-|


G|---------------------------------------------------------------|
D|---------------------------------------------------------------|
A|----4---3/4----3/4-------5---------3---3/4-----3/4-----------3-|
E|0-0---0-----0-0----0-0-0-----0-0-0---0-----0-0-----0-0-0-2-3---|


G|----------------|
D|----------------|
A|----------------|
E|0---0---0---0---|

G|---------------------------------------------------------------|.
D|---------------------------------------------------------------|.
A|----4---3/4----3/4-------5---------3---3/4-----3/4-----3-------|.
E|0-0---0-----0-0----0-0-0-----0-0-0---0-----0-0-----0-0---5-4-3-|.
                                                                  . x2
                                                                  .
G|---------------------------------------------------------------|.
D|---------------------------------------------------------------|.
A|----4---3/4----3/4-------5---------3---3/4-----3/4-----------3-|.
E|0-0---0-----0-0----0-0-0-----0-0-0---0-----0-0-----0-0-0-2-3---|.

G|----------------|
D|----------------|
A|----------------|
E|0---0---0---0---|
[ Tab from: http://www.guitartabs.cc/tabs/l/lich_king/black_metal_sucks_btab.html ]
G|------------------------------------------------------------|    G--|
D|------------------------------------------------------------| x4 D--|
A|--------3---------------------------------------------------|    A--|
E|0-2-3-5---5-3-0-2-3-0--0-0-0-0-0--0-0-0-0-0-0-1--0--0-0-0-0-|    E-0|

    1:07

G|---------------------------------------------------------------|.
D|---------------------------------------------------------------|.
A|----4---3/4----3/4-------5---------3---3/4-----3/4-----3-------|.
E|0-0---0-----0-0----0-0-0-----0-0-0---0-----0-0-----0-0---5-4-3-|.
                                                                  . x2
                                                                  .
G|---------------------------------------------------------------|.
D|---------------------------------------------------------------|.
A|----4---3/4----3/4-------5---------3---3/4-----3/4-----------3-|.
E|0-0---0-----0-0----0-0-0-----0-0-0---0-----0-0-----0-0-0-2-3---|.

G|----------------|
D|----------------|
A|----------------|
E|0---0---0---0---|

G|------------------------------------------------------------|
D|------------------------------------------------------------| x8
A|--------3---------------------------------------------------|
E|0-2-3-5---5-3-0-2-3-0--0-0-0-0-0--0-0-0-0-0-0-1--0--0-0-0-0-|

G|----------------------------------------|
D|----------------------------------------|
A|----------------------------------------|
E|0---0---0---0---0-2-3-5-3-2-0-2-3-2-0-2-|

                 black metal sounding part.

G|----------------------------------------------------------------|
D|----------------------------------------------------------------| x4
A|----------------6-6-5-5-3-3-5-5---------------------------------|
E|3-3-6-6-5-5-3-3-----------------3-3-6-6-5-5-3-3-5-5-3-3-2-2-3-3-|

                              "SHUT UP"
Comments