Libido - Despertar Chords & Tabs

 

Despertar Chords & Tabs

Libido Chords & Tabs

Version: 1 Type: Tab 0 ratings
1 star 2 stars 3 stars 4 stars 5 stars
comments

Despertar Tab

tab: willyguerra@hardrockers.com

        E-----------4------------4---4-----------------
        B--6-6--4----4----6-6--4---4-4--6-6-4-6-7-8-9--
        G--6-6--4-4---4---6-6--4-----4--6-6-4-6-7-8-9--
        D--6-6--4---------6-6--4-----4--6-6-4-6-7-8-9--
        A-------------------------------4-4---4-5-6-7--
        E----------------------------------------------

        E--4---4--5-5---7-7----
        B--4s5-5--5-5---7-7----
        G--4s6-6--6-6---8-8----
        D--4s6-6--7-7---9-9----
        A--4---4--7-7---9-9----
        E---------5-5---7-7----      X 3

        E--4---4--5-5---7-7--2-2-2--
        B--4s5-5--5-5---7-7--2-2-2--
        G--4s6-6--6-6---8-8--3-3-3--
        D--4s6-6--7-7---9-9--4-4-4--
        A--4---4--7-7---9-9--4-4-4--
        E---------5-5---7-7--2-2-2--
[ Tab from: http://www.guitartabs.cc/tabs/l/libido/despertar_tab.html ]
Ahora entiendo ......
        E--4---4--5-5---7-7----
        B--4s5-5--5-5---7-7----
        G--4s6-6--6-6---8-8----
        D--4s6-6--7-7---9-9----
        A--4---4--7-7---9-9----
        E---------5-5---7-7----    

        e-----------------------------------
        B--5s4---------4-5-4s5s4--5-7-5-----
        G------6-6-4-6-----------6----------

        e-----------------------------------
        B--5s4---------4-5-4s5s4------------
        G------6-6-4-6-----------6-4-6------
        D-----------------------------------
   
        e--4---4--5-5---7-7----
        B--4s5-5--5-5---7-7----
        G--4s6-6--6-6---8-8----
        D--4s6-6--7-7---9-9----
        A--4---4--7-7---9-9----
        E---------5-5---7-7---- 

        Coro:
	e----------------------
        B----------------------
        G--6-6-4-6-6-11-9------
        D--6-6-4-6-6-11-9------
        A--4-4-2-4-4-9--7------
        E----------------------
Comments