Libido - Cicuta Chords & Tabs

 

Cicuta Chords & Tabs

Libido Chords & Tabs

Version: 1 Type: Tab 0 ratings
1 star 2 stars 3 stars 4 stars 5 stars
comments

Cicuta Tab

   
 !!!(INTRO)

  Bm               Cm                 Bm Bm Bm (rapido)
e--3-------3--------2------2----------3--------------
b--4----------4-----3----------3------4--------------
g--5----5-----------4---4-------------5--------------
d--5----------------4-----------------5--------------
a--3----------------2-----------------3--------------
E--3----------------2-----------------3--------------

RIFF 1
-------------------------------------------------
--8/--8/----6------------8/--8/----6-------------
----------------8---5------------------8---4-----
-------------------------------------------------
-------------------------------------------------
-------------------------------------------------
(se repite varias,  veces hasta q comienzan a cantar)
[ Tab from: http://www.guitartabs.cc/tabs/l/libido/cicuta_tab.html ]
y la estrofa se toca asi...
   
RIFF 2
   Bm                        Cm
--3--3----xxxxxxxx----------2--2----xxxxxx------------
--4--4----xxxxxxxx----------3--3----xxxxxx------------
--5--5----xxxxxxxx----------4--4----xxxxxx------------
--5--5----xxxxxxxx----------4--4----xxxxxx------------
--3--3----xxxxxxxx----------2--2----xxxxxx------------
--3--3----xxxxxxxx----------2--2----xxxxxx------------
(ESTROFA 1)
ya no me trates mal      me esta sangrando el cuerpo
entiendo por favor       lo q te estoy pidiendo

(ESTROFA 2)
escupes lo que soy       me arrancas las entraņas
perdonen pero yo         si venderia mi alma


RIFF 3
e --11------11------11------11--------
b ------13------13------13------13----
g ------------------------------------

e --11------11------11------11--------
b ------12------12------12------12----
g ------------------------------------

EL CORO VA ASI:
(coro 1)
Voy buscando un lugar Bm
mira donde estoy     Cm

(coro 2)
quiero que seas Bm
mi prostituta natural Cm
Me dejara robar Bm
llevate mi sangre para brindar


LA CANCION EN SI ES ASI:

INTRO
Riff 1
Estrofa 1
coro 1
riff 1
Estrofa 2
coro 2
riff 1
riff 2
(viene una parte q nose nota, por q tiene mucha distorcion)
riff 3 X2
riff 1 
coro 1
coro 2


* Escuchando bien la cancion sale, la cancion es bien simple 
  solo es cuention de jugar con las notas y aplicar algo de distorcion.
Comments