Libertines - Youre My Waterloo Chords & Tabs

 

Youre My Waterloo Chords & Tabs

Libertines Chords & Tabs

Version: 1 Type: Tab 0 ratings
1 star 2 stars 3 stars 4 stars 5 stars
comments

Youre My Waterloo Tab

ok here is the tab for ur my waterloo ive finally got round to it!  i am aware you can
play it another way, that enables you to play the chords and meldoy at the same time
but,i cant b bothered to tab it out, it just is the same notes but starts in the first
position, and you can play it in loads of positions.  the other starts on open high e and
goes to f and so on.  Also there is a riff that is underneath the vocals, but it is very
simliar and i will maybe put them on later.  Meessege me if u wont to tell me nething at
Rorjo@aol.com
[ Tab from: http://www.guitartabs.cc/tabs/l/libertines/youre_my_waterloo_tab.html ]
E|--------------------------------------------------------|
B|-------8------------------------------------------------|
G|-9--10---10--9--7----7--9--7----------------------10--9-|
D|------------------10----------10--9--9--10-9-7----------|
A|--------------------------------------------------------|
E|--------------------------------------------------------|

E|----------------------7--8--7--7--8--7--10--------------|
B|-------8-------8--10------------------------------------|
G|-9-10---10--9------------------------------10--9--------|
D|--------------------------------------------------------|
A|--------------------------------------------------------|
E|--------------------------------------------------------|


2nd Riff (folows straight after A chord)
E|-------------------------------|
B|-------------------7--5--5-----|
G|-6--6--7--6--7--9--------------|
D|-------------------------------|
A|-------------------------------|
E|-------------------------------|

There are other licks and riffs but ill pout them on later hope this enuff for ther time
being, ne corrections or queries to Rorjo@aol.com
Comments