Libertines - What Katie Did Chords & Tabs

 

What Katie Did Chords & Tabs

Libertines Chords & Tabs

Version: 1 Type: Tab 0 ratings
1 star 2 stars 3 stars 4 stars 5 stars
comments

What Katie Did Tab

   
-----------------------------------------------------------------------
Song:What Katie Did
Artist:The Libertines
Album:The Libertines
Tabber:alexthebeatle
---------------------------------------------------------------------

 INTRO
 |-------------------------------------------------|
 |--x-x-14-14-14-14-14-14-14-14--14--14--14--------|
 |--x-x-14-14-14-14-14-14-14-14--14--14-----14-----|
 |-------------------------------------------------|
 |-------------------------------------------------|
 |-------------------------------------------------|

 |-------------------------------------------------|
 |----14-14-14-14-14-14-14-14--14--14--14----------|
 |----13-13-13-13-13-13-13-13--13--13-----13-------|
 |-------------------------------------------------|
 |-------------------------------------------------|
 |-------------------------------------------------|

 |----10-10-10-10-10-10-10-10--10--10--10----------|
 |----10-10-10-10-10-10-10-10--10--10-----10-------|
 |-------------------------------------------------|
 |-------------------------------------------------|
 |-------------------------------------------------|
 |-------------------------------------------------|

 |-------------------------------------------------|
 |----14-14-14-14-14-14-14-14--14--14--14----------|
 |----13-13-13-13-13-13-13-13--13--13-----13-------|
 |-------------------------------------------------|
 |-------------------------------------------------|
 |-------------------------------------------------|

  VERSE:

      A
      Shop   shop   shop   delang  delang
 |-----------------------------------------------|
 |--14-14-14-14-14-14-14-14--14--14--14----------|
 |--14-14-14-14-14-14-14-14--14--14-----14-------|
 |-----------------------------------------------|
 |-----------------------------------------------|
 |-----------------------------------------------|

     C#m
     Shop   shop   shop   delang  delang
 |-----------------------------------------------|
 |--14-14-14-14-14-14-14-14--14--14--14----------|
 |--13-13-13-13-13-13-13-13--13--13-----13-------|
 |-----------------------------------------------|
 |-----------------------------------------------|
 |-----------------------------------------------|

     F#m                          D         Dm
     Shop shop shop delang delang Shop shop shop delang delang
 |-------------------------------------------1--------------------|
 |--14--10--9--10--12--10--9----7---5----3---3--------------------|
 |--11---------------------------------------2--------------------|
 |----------------------------------------------------------------|
 |----------------------------------------------------------------|
 |----------------------------------------------------------------|

  A                C#m
  Oh whatcha gonna do, Katie?
           F#m
  You're a sweet sweet girl.
         D
  It's a cruel cruel world
         Dm              A
  It's a cruel cruel world

 A                     C#m
  My pins are none too strong, Katie
     F#m
  Oh hurry up, Mrs Brown
        D
  I can feel it coming down
     Dm                  A
  it won't take none too long


  A   A     A   G#   G    F#
  But since you said goodbye
 F#                         D   E
  There're polka dots in my eye
  (N.C.)            A   E
 -And I don't know why-


 SOLO:
[ Tab from: http://www.guitartabs.cc/tabs/l/libertines/what_katie_did_tab.html ]
   A               C#m                F#m            D     Dm
 |---------------------------------------------------------1--0-|
 |---------------------------------------------------------3--0-|
 |---------------------------------------------------------2--0-|
 |--/7b---7-6-7-9--s11-6---6-7s8-7-6--4-7-6-5-4s3-2--2-0--------|
 |--------------------------------------------------------------|
 |--------------------------------------------------------------|


 A
  Shoop shoop, shoop de-lang de-lang
 C#m
  Shoop shoop, shoop de-lang de-lang
 F#m
  Shoop shoop, shoop de-lang de-lang
 D             Dm
  Shoop shoop, shoop de-lang de-lang


A                C#m
  Oh whatcha gonna do, Katie?
           F#m
  You're a sweet sweet girl.
         D
  It's a cruel cruel world
         Dm             A
  It's a cruel cruel world

 A                                C#m
  And my safety pins are none too strong
                   F#m
  But they hold my life together
             D
  You know I never say never
    Dm                A
  I never say never again


   A   A     A   G#   G    F#
  But since you said goodbye
 F#                         D   E
  There're polka dots in my eye
  (N.C.)            A   E
 -And I don't know why-


 A                       F#
  But since you said goodbye
                            D   E
  There're polka dots in my eye
                   A
 -And I don't know why-


 |--x-x-x-x-x-x-x-x-x-x-x-x------------------------|
 |--x-x-x-x-x-x-x-x-x-x-x-x------------------------|
 |--x-x-x-x-x-x-x-x-x-x-x-x------------------------|
 |-------------------------------------------------|
 |-------------------------------------------------|
 |-------------------------------------------------|

 |--------------------------------------------------|
 |----14-14-14-14-14-14-14-14--14--14--14-----------|
 |----14-14-14-14-14-14-14-14--14--14-----14--------|
 |--------------------------------------------------|
 |--------------------------------------------------|
 |--------------------------------------------------|

 |-------------------------------------------------|
 |----14-14-14-14-14-14-14-14--14--14--14----------|
 |----13-13-13-13-13-13-13-13--13--13-----13-------|
 |-------------------------------------------------|
 |-------------------------------------------------|
 |-------------------------------------------------|

 |----10-10-10-10-10-10-10-10--10--10--10----------------|
 |----10-10-10-10-10-10-10-10--10--10-----10--9-7-5-3-2--|
 |-------------------------------------------------------|
 |-------------------------------------------------------|
 |-------------------------------------------------------|
 |-------------------------------------------------------|


 A
  Shoop shoop, shoop de-lang de-lang
 C#m
  Shoop shoop, shoop de-lang de-lang
 F#m
  Shoop shoop, shoop de-lang de-lang
 D             Dm
  Shoop shoop, shoop de-lang de-lang

A
  Shoop shoop, shoop de-lang de-lang
 C#m
  Shoop shoop, shoop de-lang de-lang
 F#m
  Shoop shoop, shoop de-lang de-lang
 D             Dm
  Shoop shoop, shoop de-lang de-lang

A
  Shoop shoop, shoop de-lang de-lang
 C#m
  Shoop shoop, shoop de-lang de-lang
 F#m
  Shoop shoop, shoop de-lang de-lang
 D             Dm
  Shoop shoop, shoop de-lang de-lang

A
  Shoop shoop, shoop de-lang de-lang
 C#m
  Shoop shoop, shoop de-lang de-lang
 F#m
  Shoop shoop, shoop de-lang de-lang
 D             Dm
  Shoop shoop, shoop de-lang de-lang


 A                     F#
  But since you said goodbye
                            D   E
  There're polka dots in my eye
                   A
 -And I don't know why-
Comments