Libertines - What Katie Did Chords & Tabs

 

What Katie Did Chords & Tabs

Libertines Chords & Tabs

Version: 2 Type: Bass Tab

What Katie Did Bass Tab

Song: What Katie Did
Artist: The Libertines
Tabbed By: Bec

Welcome to the bass tab for What Katie Did. We hope you have a pleasant stay. Emergency 
are located <-- here and here -->.
In the case of a mistake in the tab, please email me at chintzish_meep@hotmail.com.

Intro

G: ------------------------------------------------------|
D: -7---7--7-----6---646---------------------------------|
A: ---7---7-7--4---4------4---4-4-5-5-5-5-8-8-8-8--------|
E: ----------------------2---2-2-------------------------| x2

Verse

G: ------------------------------------------------------|
D: -7---7--7--6---6--6--4---4--4-------------------------|
A: ---7---7-7---7---7-7---4---4-4-5-5-5-5-8-8-8-8--------|
E: ------------------------------------------------------| x2

Chorus
[ Tab from: http://www.guitartabs.cc/tabs/l/libertines/what_katie_did_btab_ver_2.html ]
G: ------------------------------------------------------|
D: -7---7765----4----------------------------------------|
A: ---7-------4-----4-2------2---------------------------|
E: ---------2------------0-4---0---5-0-5-0-2-4-----------| x1

G: ------------------------------------------------------|
D: ---------------------------4--------------------------|
A: -----------------------4-----4-5-5-5-5-8-8-8-8--------|
E: -5-0-5-050-4-0-4-040-2---2----------------------------| x1

Bridge

G: -------------------------------------------------------|
D: -------------------------------------------------------|
A: -----------2-------------------------------------------|
E: -5----2---------0----5---------------------------------| x1

End

G: -------------------------------------------------------|
D: -7-----------------------------------------------------|
A: -----------2-------------------------------------------|
E: ------2---------0----5---------------------------------| x1

Intro
Verse
Chorus
Verse
Bridge
Verse
End