Libertines - Up The Bracket Chords & Tabs

 

Up The Bracket Chords & Tabs

Libertines Chords & Tabs

Version: 3 Type: Tab 0 ratings
1 star 2 stars 3 stars 4 stars 5 stars
comments

Up The Bracket Tab

   
-----------------------------------------------------------------------
Up The Bracket- The Libertines
-----------------------------------------------------------------------

Song: Up The Bracket
Album: Up The Bracket
Tabbed By: Nedelko
Tuning: Standard EADGBe (Low To High)
Any Comments? Email me @ candidate_1066@hotmail.com

I hope this is alright, I reckon it is pretty good anyway.
I've tried to get the words in the exact place they should be, some might be a little
out though. Check out my Time For Heroes tab as well if ya like this one. Please rate
them, they took me ages.

Chords Used:
    EADGBe
F#m 9,9,11,11,10,9
Fm  11,11,13,13,12,11
A 5,7,7,6,5,5
E x,7,9,9,9,x
G# 4,6,6,5,4,4
G 3,5,5,4,3,3
F#m* 2,4,4,2,2,2
C#m 4,4,6,6,5,4
E7 0,7,6,7,5,x
E6 x,x,9,9,9,9
Dmaj7 x,x,12,11,10,9
Am 5,7,7,5,5,5
G#m  4,6,6,4,4,4
Gm 3,5,5,3,3,3
F#m7 x,9,11,9,10,12
C#m7 9,11,9,9,9,12
C#7 x,4,3,4,2
C#7(b9) x,4,3,4,3,x
Am7 5,7,5,5,8,x
Am13 5,7,5,5,7,x
E* x,x,9,9,9,x
Dmaj7* x,5,7,6,7,x

Intro
e|-----------------|-------------------|-------------------|-9--------|
B|----10-----9--9--|------10-----9--9--|------10-----9--9--|-10-------|
G|----11-----10-10-|------11-----10-10-|------11-----10-10-|-11-------|
D|----11-----10-10-|------11-----10-10-|------11-----10-10-|-11-------|
A|-9--9---8--8--8--|-9-9--9---8--8--8--|-9-9--9---8--8--8--|-9--------|
E|-9------8--------|-9-9------8--------|-9-9------8--------|----------|

Verse
   Saw two      sha-dow         men  on the       Vallance    Road.      
e|5--5--5--5--5--5--5----|------------------------|5---5-5---5-5------|
B|5--5--5--5--5--5--5----|-9--9--9--9--9--9--9--9-|5---5-5---5-5------|
G|6--6--6--6--6--6--6----|-9--9--9--9--9--9--9--9-|6---6-6---6-6--x-6-|
D|7--7--7--7--7--7--7--0-|-9--9--9--9--9--9--9--9-|7---7-7---7-7--x-7-|
A|7--7--7--7--7--7--7--0-|-7--7--7--7--7--7--7--7-|7---7-7---7-7--x-7-|
E|5--5--5--5--5--5--5--0-|-0--0--0--0--0--0--0--0-|5---5-5---5-5--x-5-|

               They said they'd    pay me for your     ad - dress,   oh I__  was   so____
e|5----5--5--5--5--5--5-5-|5--5--5--5--5--5--5---|--------------------|
B|5----5--5--5--5--5--5-5-|5--5--5--5--5--5--5---|9--9--9--9--9--9--9-|
G|6----6--6--6--6--6--6-6-|6--6--6--6--6--6--6---|9--9--9--9--9--9--9-|
D|7----7--7--7--7--7--7-7-|7--7--7--7--7--7--7-0-|9--9--9--9--9--9--9-|
A|7----7--7--7--7--7--7-7-|7--7--7--7--7--7--7-0-|7--7--7--7--7--7--7-|
E|5----5--5--5--5--5--5-5-|5--5--5--5--5--5--5-0-|0--0--0--0--0--0--0-|
_______          bold____                                             I   said   "You 
e|-5-----5----5-----5----5--------|-5------5--------4-----------------|
B|-5-----5----5-----5----5--------|-5------5--------4-----------------|
G|-6-----6----6-----6----6--x--6--|-6------6--x--x--5------4----------|
D|-7-----7----7-----7----7--x--7--|-7------7--x--x--6------5----------|
A|-7-----7----7-----7----7--x--7--|-7------7--x--x--6------5----------|
E|-5-----5----5-----5----5--x--5--|-5------5--x--x--4------3----------|
    see these two  cold      fin   -    gers?___                 These  crook - ed
e|------2-----2--2--2-|-------4------4--4--4--|------2--------2--2----|
B|------2-----2--2--2-|-------5------5--5--5--|------2--------2--2----|
G|------2-----2--2--2-|-------6------6--6--6--|------2--------2--2----|
D|--4---4-----4--4--4-|-------6------6--6--6--|------4--4-4---4--4----|
A|--4-----------------|--4----4------4--4--4--|4--4-----4-4---4--4--4-|
E|--2-----------------|--4--------------------|2--2-----2-2---------2-|
    fin  -  gers___ I show__                              you a way to mean
e|-------4------4-4-4--|-------------------|--------------------------|
B|-------5------5-5-5--|--5-5-5-5-5-5-5-5--|-5------------------------|
G|-------6------6-6-6--|--7-7-7-7-7-7-7-7--|-7------------------------|
D|-------6------6-6-6--|--6-6-6-6-6-6-6-6--|-6------------------------|
A|--4----4------4-4-4--|--7-7-7-7-7-7-7-7--|-7------------------------|
E|--4------------------|--0-0-0-0-0-0-0-0--|-0------------------------|

After "You a way to mean" the song goes back to the start of the verse.
The lyrics are 
"No, Well they didn't like that much I can tell you"
"He said "sunshine I wouldn't really want to be in your shoes"
"And they chased me up three flights of stairs"
"Caught me in the lift, how I sighed and said hello"
"Cause Your Impossible"
[ Tab from: http://www.guitartabs.cc/tabs/l/libertines/up_the_bracket_tab_ver_3.html ]
For gtr 2 I will just put the chords that he plays above the words.
Gtr 1 carries on with this:
   F#m                  E6                      Dmaj7
        And it's just like _____he's in another world,______ he doesn't see_________ the 
e|--------------------|-----------------------|-----------------------|
B|--------------------|-----------------------|-----------------------|
G|--------------------|-----------------------|-----------------------|
D|11-11-11-11-11-11-11|-9--9--9--9--9--9--9--9|-7--7--7--7--7--7--7--7|
A|--------------------|-----------------------|-----------------------|
E|--------------------|-----------------------|-----------------------|
   C#m7        Cm7  Bm7
     dan - ger___ on___ show,_____               Now he'll wind up like Jo  -  seph
e|--------------------|-----------------------|-----------------------|
B|--------------------|-----------------------|-----------------------|
G|--------------------|-----------------------|-----------------------|
D|--6----6----5----4--|---4--4--4--4b---------|---4---4--4--4----5----|
A|--------------------|-----------------------|-----------------------|
E|--------------------|-----------------------|-----------------------|
   C#7                                         F#m
     bloo - dy  in a ho - le__________                      It's  just  like
e|------------------------|-------------------|-----------------------|
B|------------------------|------------------|------------------------|
G|------------------------|------------------|------------------------|
D|-6--6--6--6--6--6--6--7-|-6-----------2/---|11-11-11-11-11-11-11-11-|
A|------------------------|----/4---/2-------|------------------------|
E|------------------------|------------------|------------------------|
   E6                 Dmaj7                    C#m7
    she's in  another world,__   and how they suit   each oth  -  er,__   oh     no_____
e|--------------------|-----------------------|-----------------------|
B|--------------------|-----------------------|-----------------------|
G|--------------------|-----------------------|-----------------------|
D|-9--9--9--9--9--9--9|-7--7--7--7--7--7--7--7|--6----6----5----4-----|
A|--------------------|-----------------------|-----------------------|
E|--------------------|-----------------------|-----------------------|
 C#m7                             C#7
                     'Cause you never get        close,____    ah         Its impossible.
e|--------------|-----------------|-----------------|-----------------|
B|--------------|-----------------|-----------------|-----------------|
G|--------------|-----------------|-----------------|-----------------|
D|-4--4--4--4b--|-4--4---4--4---5-|-6-6-6-6-6-6-6-7-|-2---------------|
A|--------------|-----------------|-----------------|-----------------|
E|--------------|-----------------|-----------------|-----------------|

Then the intro is played once and then Gtr 1 plays the verse and Gtr 2 plays the
picking parts above at the same time. Then the intro is played once again and then
after the words "It's unstoppable" this is played: (I will put gtr 2 chords above
the tab again)
    F#m                Am        
e|--9---------------|-------------------------|-----------------------|
B|--10--------------|-------------------------|-----------------------|
G|--11--------------|---5---------------------|-5---------------------|
D|--11--------------|--x--7--7--7--7--7--7--7-|---7--7--7--7--7--7--5-|
A|--9---------------|-x------0--0--0--0--0--0-|---0--0--0--0--0--0--0-|
E|------------------|-------------------------|-----------------------|
  Am
e|--------------|-----------------|-----------------|-----------------|
B|--------------|-----------------|-----------------|-----------------|
G|--------------|----7b-----------|-----------------|---------5-5-5-5-|
D|7--5-7--7-7-7-|7b--7b----7--7-7-|---7-7-7-7-7-7-7-|-5/7-7-7-7-7-7-7-|
A|0--0-0--0-0-0-|0------0--0--0-0-|-0-0-0-0-0-0-0-0-|---0-0-0-0-0-0-0-|
E|--------------|-----------------|-----------------|-----------------|
  Am                                G#  Gm    F#m7           C#m7
e|-------------------|---------------------|----------------|---------|
B|-------------------|----5----------------|----------------|---------|
G|--5--5-----5--5----|-7-----7b--7b--7b-5-5|-/11-------/11--|--9\---6-|
D|--7-----7--7--7--5-|---------------------|----------------|---------|
A|--0-----0--0--0--0-|---------------------|----------------|---------|
E|-------------------|---------------------|----------------|---------|
   F#m7           C#m              E7
e|---------------|----------------|-----------------|-----------------|
B|---------------|----------------|-----------------|-----------------|
G|-11--11--11--11|-9\--6----6-6---|-4-4-4-4-4-4-4-6-|-4---------------|
D|---------------|----------------|-----------------|------------4\---|
A|---------------|----------------|-----------------|-----------------|
E|---------------|----------------|-----------------|-----------------|
   F#m            E6               Dmaj7             C#m7     Cm7  Bm7
   And it's just like we're all in another world and how we suite each oth - er    oh no
e|---------------|----------------|-----------------|-----------------|
B|---------------|----------------|-----------------|-----------------|
G|---------------|----------------|-----------------|-----------------|
D|/11-11-11-11-11|-9-9-9-9-9-9-9-9|-7-7-7-7-7-7-7-7-|--6--6---6---4---|
A|---------------|----------------|-----------------|-----------------|
E|---------------|----------------|-----------------|-----------------|
  Bm7                               C#7              C#7(b9)
                        'Cause you never get close,______ that's            close enough
e|---------------|----------------|-----------------|-----------------|
B|---------------|----------------|-----------------|-----------------|
G|---------------|----------------|-----------------|-----------------|
D|---4-4-4-4b----|---4-4--4-4--5--|-6-6-6-6-6-6-6-6-|-6b----------6---|
A|---------------|----------------|-----------------|-----------------|
E|---------------|----------------|-----------------|-----------------|
    Am            Am7   Am13
e|---------------|----------------|-----------------|-----------------|
B|---------------|----------------|-----------------|-----------------|
G|---- hold all the bends---------|-----------------|-----------------|
D|---6b----6b----|--------6b------|-----------6b----|----------6b-----|
A|---------------|----------------|-----------------|-----------------|
E|---------------|----------------|-----------------|-----------------|
With clean tone
                    F#m              E                Dmaj7
e|---------------|--9-------------|-----------------|-----------------|
B|---------------|--10------------|--9--------------|--7--------------|
G|--6b------(6)--|--11------------|--9--------------|--6--------------|
D|--6b------(6)--|--11------------|--9--------------|--7--------------|
A|---------------|----------------|-----------------|--5--------------|
E|---------------|----------------|-----------------|-----------------|

There ya go, that's it. Enjoy!
Comments