Libertines - Up The Bracket Chords & Tabs

 

Up The Bracket Chords & Tabs

Libertines Chords & Tabs

Version: 2 Type: Tab 0 ratings
1 star 2 stars 3 stars 4 stars 5 stars
comments

Up The Bracket Tab

   
The Libertines
Up The Bracket
by Jonny B

   Fm F#m*  A   E   F#m   C#m   Cm   Bm7   C#m7  Am
e--8---9----5--------2-----4-----3----2-----4----0----|
b--9---10---5---9----2-----5-----4----3-----5----1----|
g-10---11---6---9----2-----6-----5----2-----4----2----|
d-10---11---7---9----4-----6-----5----4-----6----2----|
a--8---9----7---7----4-----4-----3----2-----4----0----|
E-----------5--------2--------------------------------|


Intro/break

Fm F#m* x4

Verse
[ Tab from: http://www.guitartabs.cc/tabs/l/libertines/up_the_bracket_tab_ver_2.html ]
 A              E                   A
Saw two shadow men on the violence road
                      A                 E             A
They said they would pay me for your address oh i was so bold
    F#m                 C#m    F#m            C#m           E
You see these two cold fingers, these crooked fingers are showing you the way to mean no

Chorus

F#m*            E                   C#m                   Cm        Bm7
It's just like he's in another world, he doesn't see the dan-ger on show,
                               C#m7
now he'll wind up like Joseph bloody in the hole


Lead for chorus

e----------------------------------|
b----------------------------------|
g----------------------------------|
d--11--9--7--6--6-5-4---5-65-------|
a----------------------------------|
E----------------------------------|

Solo

e-------------------------------------------------------------------------|
b-------------------------------------------------------------------------|
g---------------------9-9-9-9-7------9-9-9-9-7----------------------------|
d--7(tremelo)-------------------9--------------9--7-7-7-7-7-7-7-9-7-------|
a-------------------------------------------------------------------------|
E-------------------------------------------------------------------------|

End on Am
Comments