Libertines - Time For Heroes Chords & Tabs

 

Time For Heroes Chords & Tabs

Libertines Chords & Tabs

Version: 2 Type: Tab 0 ratings
1 star 2 stars 3 stars 4 stars 5 stars
comments

Time For Heroes Tab

   
-----------------------------------------------------------------------
Time For Heroes- The Libertines
-----------------------------------------------------------------------
Song: Time For Heroes
Album: Up The Bracket.
Tabbed By: Matt Ned
Any comments? Email me @ candidate_1066@hotmail.com


Hey, I hope this is alright. I reckon it is anyway.
I've tried to put the words in exactly the right place but some might be a little out.
Check out my tab of can't stand me now and arbeit macht frei if ya like this one.
Please rate.

Chords used:

A7 x02023
D xx0232
F#m 244222
Bm x24432
Gmaj7 xx5432
F#m6 2x0222
G 355433
A 577655
Gm 355333
Ab 466544
D* x5777x
C# x4666x
C x3555x
D7 xx0212
E 022100
D** 10,12,12,11,10,10
Dmaj7 xx0,11,10,9
Gmaj7* xx5777
G5 35xxxx
A5 57xxxx
B 7998xx
C# 9,11,11,9xx

Gtrs 1+2 play the same stuff.
                                   Did  you   see            the
e|---3--3--3--3--3--3--3--3---|----3----x--x--------x--x----2--2------|
B|---2--2--2--2--2--2--2--2---|----2----x--x--------x--x----3--3------|
G|---0--0--0--0--0--0--0--0---|----0----x--x--------x--x----2--2------|
D|---2--2--2--2--2--2--2--2---|----2----x--x--------x--x----0--0------|
A|---0--0--0--0--0--0--0--0---|----0----x--x--------x--x--------------|
E|----------------------------|---------------------------------------|
   sty - lish             kids        in the riot             shoveled up like muck set
e|-2----2--2----2--x-------|-2---2--2----2--2--2--|2---2--2---2--2--2-|
B|-3----3--3----3--x-------|-2---2--2----2--2--2--|3---3--3---2--2--2-|
G|-2----2--2----2--x-------|-2---2--2----2--2--2--|4---4--4---4--4--4-|
D|-0----0--0----0--x-------|-4---4--4----4--4--4--|4---4--4---4--4--4-|
A|---------------------4-4-|-4---4--4----4--4--4--|2---2--2---2--2--2-|
E|---------------------2-2-|-2---2--2----2--2--2--|-------------------|
    the night  on fire. Wombles bleed       truncheons and shields.          You know I
e|--2---2--2---2--2--2--|-2-----2--2----2--x------|2---2--2---2--2--2-|
B|--3---3--3---3--3--3--|-3-----3--3----3--x------|2---2--2---2--2--2-|
G|--4---4--4---4--4--4--|-2-----2--2----2--x------|2---2--2---2--2--2-|
D|--5---5--5---5--5--5--|-0-----0--0----0--x--0-0-|0---0--0---0--0--0-|
A|----------------------|---------------------x-x-|x---x--x---x--x--x-|
E|----------------------|---------------------2-2-|2---2--2---2--2--2-|
  cherish    you         my   love.                But theres a  rumour,spread nasty dis-
e|3--3--3--3--3--3--3--3-|-5--5--5--5--5--5--5--5--|-2--2--2---2-x----|
B|3--3--3--3--3--3--3--3-|-5--5--5--5--5--5--5--5--|-3--3--3---3-x----|
G|4--4--4--4--4--4--4--4-|-6--6--6--6--6--6--6--6--|-2--2--2---2-x----|
D|5--5--5--5--5--5--5--5-|-7--7--7--7--7--7--7--7--|-0--0--0---0-x----|
A|5--5--5--5--5--5--5--5-|-7--7--7--7--7--7--7--7--|---------------4-4|
E|3--3--3--3--3--3--3--3-|-5--5--5--5--5--5--5--5--|---------------2-2|
   -ease a- round town.  You're  caught in the houses  with    your trousers down. A head  
e|---2---2-2----2--2--2--|-2----2-2------2--2--2---|-2--2--2--2--2--2-|
B|---2---2-2----2--2--2--|-3----3-3------3--3--3---|-3--3--3--3--3--3-|
G|---2---2-2----2--2--2--|-4----4-4------4--4--4---|-4--4--4--4--4--4-|
D|---4---4-4----4--4--4--|-4----4-4------4--4--4---|-5--5--5--5--5--5-|
A|---4---4-4----4--4--4--|-2----2-2------2--2--2---|------------------|
E|---2---2-2----2--2--2--|-------------------------|------------------|
 - rush          and in the bush.           You know I   cher-ish    you,___       my____
e|-2---2--2----2--x-----|2---2--2----2--2--2-|-3--3--3--3--3--3--3--3-|
B|-3---3--3----3--x-----|2---2--2----2--2--2-|-3--3--3--3--3--3--3--3-|
G|-2---2--2----2--x-----|2---2--2----2--2--2-|-4--4--4--4--4--4--4--4-|
D|-0---0--0----0--x--0-0|0---0--0----0--0--0-|-5--5--5--5--5--5--5--5-|
A|----------------x--x-x|x---x--x----x--x--x-|-5--5--5--5--5--5--5--5-|
E|-------------------2-2|2---2--2----2--2--2-|-3--3--3--3--3--3--3--3-|
   love.          Oh, how   I   cherish     you,     my       love,______
e|5--5--5--5--5--5--5--5|3--3--3--3--3--3--3--3|-5---5--5--5----5--4--|
B|5--5--5--5--5--5--5--5|3--3--3--3--3--3--3--3|-5---5--5--5----5--4--|
G|6--6--6--6--6--6--6--6|4--4--4--4--4--4--4--4|-6---6--6--6----6--5--|
D|7--7--7--7--7--7--7--7|5--5--5--5--5--5--5--5|-7---7--7--7----7--6--|
A|7--7--7--7--7--7--7--7|5--5--5--5--5--5--5--5|-7---7--7--7----7--6--|
E|5--5--5--5--5--5--5--5|3--3--3--3--3--3--3--3|-5---5--5--5----5--4--|

Chorus
       Tell  me  what you can want,  now you've  got it all.    All you've seem is  ob-
e|-3--------------------|-3-----------x-------|-----------------------|
B|-3--------------------|-3-----------x-------|-7---7-----7--6--5--x--|
G|-4--------------------|-4-----------x-------|-7---7-----7--6--5--x--|
D|-5--------------------|-5-----------x-------|-7---7-----7--6--5--x--|
A|-5--------------------|-5-----------x-------|-5---5-----5--4--3--x--|
E|-3--------------------|-3-----------x-------|-----------------------|
-scene, time will strip it away.        A year and a day_____               Oh,  Bill   
e|--2---2--2--2--2------|-3--3--3----3--3--3--|-0---0--0--0--0--0--0--|
B|--1---1--1--1--1------|-3--3--3----3--3--3--|-0---0--0--0--0--0--0--|
G|--2---2--2--2--2------|-4--4--4----4--4--4--|-1---1--1--1--1--1--1--|
D|--0---0--0--0--0------|-5--5--5----5--5--5--|-2---2--2--2--2--2--2--|
A|-----------------0--0-|-5--5--5----5--5--5--|-2---2--2--2--2--2--2--|
E|-----------------0--0-|-3--3--3----3--3--3--|-0---0--0--0--0--0--0--|
   Bones,     Bill Bones  knows  what I really knows.                          There's   
e|--0-0-0-0-0-0-0-0--|--0-0-0-0-0-0-0----0--|-0-0-0-0-0-0-0--------0--|
B|--2-2-2-2-2-2-2-2--|--0-0-0-0-0-0-0----0--|-0-0-0-0-0-0-0--------0--|
G|--0-0-0-0-0-0-0-0--|--2-2-2-2-2-2-2----2--|-2-2-2-2-2-2-2--------2--|
D|--2-2-2-2-2-2-2-2--|--0-0-0-0-0-0-0----0--|-0-0-0-0-0-0-0--------0--|
A|--0-0-0-0-0-0-0-0--|--2-2-2-2-2-2-2----2--|-2-2-2-2-2-2-2--------2--|
E|-------------------|------------------------------------------------|

Now you play all that above(from where the words "stylish kids" come in)
for the second verse and second chorus then you carry on and play the
following: (From where "There's" starts in the bar above)
[ Tab from: http://www.guitartabs.cc/tabs/l/libertines/time_for_heroes_tab_ver_2.html ]
   few-er     more   dis-tressing  sights than that    of an       English man     in a
e|--2---2--2----2--x------|-2----2--2----2--2--2-|-2----2--2----2-2-2-|
B|--3---3--3----3--x------|-2----2--2----2--2--2-|-3----3--3----3-3-3-|
G|--2---2--2----2--x------|-2----2--2----2--2--2-|-4----4--4----4-4-4-|
D|--0---0--0----0--x------|-4----4--4----4--4--4-|-4----4--4----4-4-4-|
A|--------------------4-4-|-4----4--4----4--4--4-|-2----2--2----2-2-2-|
E|--------------------2-2-|-2----2--2----2--2--2-|--------------------|
     baseball cap.  And we'll  die   in the class___ we were born,         well that's a
e|----2--2--2--2--2--2--|-2---2--2-----2--x-------|2---2--2---2--2--2-|
B|----3--3--3--3--3--3--|-3---3--3-----3--x-------|2---2--2---2--2--2-|
G|----4--4--4--4--4--4--|-2---2--2-----2--x-------|2---2--2---2--2--2-|
D|----5--5--5--5--5--5--|-0---0--0-----0--x--0--0-|0---0--0---0--0--0-|
A|----------------------|--------------------x--x-|x---x--x---x--x--x-|
E|----------------------|--------------------2--2-|2---2--2---2--2--2-|
   class of our own,  my love           A class of our own,__ my____ love
e|-3-3-3-3-3-3-3-3-|-5-5-5-5-5-5-5-5|-3-3-3-3-3-3-3-3|-5--5-5-5-5-x-5-|
B|-3-3-3-3-3-3-3-3-|-5-5-5-5-5-5-5-5|-3-3-3-3-3-3-3-3|-5--5-5-5-5-x-5-|
G|-4-4-4-4-4-4-4-4-|-6-6-6-6-6-6-6-6|-4-4-4-4-4-4-4-4|-6--6-6-6-6-x-6-|
D|-5-5-5-5-5-5-5-5-|-7-7-7-7-7-7-7-7|-5-5-5-5-5-5-5-5|-7--7-7-7-7-x-7-|
A|-5-5-5-5-5-5-5-5-|-7-7-7-7-7-7-7-7|-5-5-5-5-5-5-5-5|-7--7-7-7-7-x-7-|
E|-3-3-3-3-3-3-3-3-|-5-5-5-5-5-5-5-5|-3-3-3-3-3-3-3-3|-5--5-5-5-5-x-5-|

Interlude
                                                      B   B   B  B
e|-------7---------|----------------|---------------|-5--5--5--5------|
B|-------7----5--7-|-5----7----5--7-|-----7---5-7-7-|-7--7--7--7--7-5-|
G|---7--------7----|-6----6----6--6-|-4-------------|-----------------|
D|---0-------------|-0--------------|---------------|-----------------|
A|-----------------|----------------|---------------|-----------------|
E|-----------------|----------------|---------------|-----------------|
                                                  B    B   B   B  B      
e|-----------------|----------------|-------------5-|-5--5--5--5------|
B|------7-----5-7--|-5---7----5--7--|---------5-7-7-|-7--7--7--7--7-5-|
G|--7---7-----7-7--|-6---6----6--6--|-----7-7-------|-----------------|
D|--0--------------|-0--------------|-9-9-----------|-----------------|
A|--0--------------|----------------|---------------|-----------------|
E|-----------------|----------------|---------------|-----------------|

Gtr Solo
Gtr 1
e|------------10--------|------------9--------|--------7--------------|
B|---------10-----------|----10--10-----------|-----7-----10----------|
G|--11--11--------11----|-11------------------|-7---------------------|
D|--12------------12----|---------------------|-----------------------|
A|----------------------|---------------------|-----------------------|
E|----------------------|---------------------|-----------------------|

e|--------------2-------|---------------10----|-------------9---------|
B|-----------3----------|---------------------|-----10--10------------|
G|-------4--------------|-----11----11--------|-11--------------------|
D|---5------------------|-12------------------|-----------------------|
A|----------------------|---------------------|-----------------------|
E|----------------------|---------------------|-----------------------|

e|--------------------------------|----5---5---5---5---5---5---5------|
B|--12----12--12----12--12--12/14-|----5---5---5---5---5---5---5------|
G|--12----12--12----12--12--12/14-|----6---6---6---6---6---6---6------|
D|--12----12--12----12--12--12/14-|-----------------------------------|
A|--------------------------------|-----------------------------------|
E|--------------------------------|-----------------------------------|

GTR 2 plays this during the solo at the same time as GTR 1
                                B                                   B
e|----------------------|---------------------|-7---------------------|
B|-----------------7----|---------------7-----|-7---10----------------|
G|-----------------7----|-9--9--7-------7-----|--------9---9--7-------|
D|-----7-9-7---9p7---9p7|-----------9p7---9---|------------------9p7--|
A|-7h9------------------|---------------------|-----------------------|
E|----------------------|---------------------|-----------------------|
      b          b               p     p     p      p  
e|----------------------|---------------------|-----------------------|
B|----------------------|---7----7----7----7--|----------------7------|
G|---9---9--9-9---9--7--|---7----7----7----7--|----------------7------|
D|----------------------|-97---97---97---97---|------------------9p7--|
A|----------------------|--------------------9|--8-7-5-----7h9--------|
E|----------------------|---------------------|--------7--------------|
                         B
e|--------------------------------|-----------------------------------|
B|---7-------7--------------7-----|------------------7-------7--------|
G|---7-------7------9---9---7-----|------------------7-------7--------|
D|------9p7-----9p7---------------|----------7---9-------9------------|
A|-----------------------------9--|--5--7h9---------------------------|
E|--------------------------------|-----------------------------------|

Bridge
      B       B          B       B             B       B           B B B B     
e|---5-----5----|---5-----5-------|---5-----5-------|-----------------|
B|---7-----7----|---7-----7-------|---7-----7--7-5--|-7-7-7-7---7--7--|
G|--------------|-----------------|-----------------|-----------------|
D|--------------|-----------------|-----------------|-----------------|
A|--------------|-----------------|-----------------|-----------------|
E|--------------|-----------------|-----------------|-----------------|
    Ah,____________       Ah,______________    Ah,______  Now     did   you   see   the
e|-2-2-2-2-2-2-2-2-|-2-2-2-2-2-2-2-2|-3-3-3-3-3-3-3-3|-5-5-5-5-5-5-5-5|
B|-3-3-3-3-3-3-3-3-|-2-2-2-2-2-2-2-2|-3-3-3-3-3-3-3-3|-5-5-5-5-5-5-5-5|
G|-2-2-2-2-2-2-2-2-|-2-2-2-2-2-2-2-2|-4-4-4-4-4-4-4-4|-6-6-6-6-6-6-6-6|
D|-0-0-0-0-0-0-0-0-|-0-0-0-0-0-0-0-0|-5-5-5-5-5-5-5-5|-7-7-7-7-7-7-7-7|
A|-----------------|-0-0-0-0-0-0-0-0|-5-5-5-5-5-5-5-5|-7-7-7-7-7-7-7-7|
E|-----------------|-2-2-2-2-2-2-2-2|-3-3-3-3-3-3-3-3|-5-5-5-5-5-5-5-5|
    love.                     Yeah, I          cher-ish        you,______      my______
e|--5---5---5---5---5---5---5---5---|--3---3---3---3---3---3---3---3--|
B|--5---5---5---5---5---5---5---5---|--3---3---3---3---3---3---3---3--|
G|--6---6---6---6---6---6---6---6---|--5---5---5---5---5---5---5---5--|
D|--7---7---7---7---7---7---7---7---|--5---5---5---5---5---5---5---5--|
A|--7---7---7---7---7---7---7---7---|--5---5---5---5---5---5---5---5--|
E|--5---5---5---5---5---5---5---5---|--3---3---3---3---3---3---3---3--|

e|--5----------------------------|------------|--10-------------------|
B|--5----------------------------|------------|--10-------------------|
G|--6----------------6---8---10--|--11--------|--11-------------------|
D|--6----------------7---9---11--|--12--------|--12-------------------|
A|--7--------7---7---7---9---11--|--12--------|--12-------------------|
E|--5--------5---5---5---7---9---|--10--------|--10-------------------|

That's it! Great song!. Enjoy!
Comments