Libertines - Someone Else's Song Chords & Tabs

 

Someone Else's Song Chords & Tabs

Libertines Chords & Tabs

Version: 1 Type: Tab 0 ratings
1 star 2 stars 3 stars 4 stars 5 stars
comments

Someone Else's Song Tab

   
#----------------------------------PLEASE NOTE---------------------------------#
#This file is the author's own work and represents their interpretation of the #
#song. You may only use this file for private study, scholarship, or research. #
#------------------------------------------------------------------------------#
The Libertines - Someone Elese's Song

Intro
Guitar 1
      G       C       Em       D
e---------------------------------------------------------------------|
B---------------------------------------------------------------------|
G-------------5----------------7--------------------------------------|
D-----5-------5--------2-------7--------------------------------------|
A-----5-------3--------2-------5--------------------------------------|
E-----3----------------0----------------------------------------------|

Guitar 2
    G        C        Em       D
e---------------------------------------------------------------------|
B---------------------------------------------------------------------|
G---00000000/55555555/99999999/77777777-------------------------------|
D---------------------------------------------------------------------|
A---------------------------------------------------------------------|
E---------------------------------------------------------------------|

Guitar 1 continues for verse.
[ Tab from: http://www.guitartabs.cc/tabs/l/libertines/someone_elses_song_tab.html ]
back to intro x2

Pre Chorus:
        Am        G        Am         G        D        C      D
e----------------------------------------------------------------------|
B----------------------------------------------------------------------|
G----------------------------------------------7--------5------7-------|
D-------7---------5---------7---------5--------7--------5------7-------|
A-------7---------5---------7---------5--------5--------3------5-------|
E-------5---------3---------5---------3--------------------------------|


Pre Chorus

Chorus

Then after the 2nd chorus guitar 2 plays:
e---------------------------------------------------------------------|
b---------------------------------------------------------------------|
g---7----545-(x7)-----4-5p4-5p4-5p4-5p4-5p4-5p4-5p4-5p4-54542---------|
D-------------------------------------------------------------5-------|
A---------------------------------------------------------------------|
E---------------------------------------------------------------------|

Then the last chorus and end on:

       D      C     Bm      A     G
e------------------------------------|
B------------------------------------|
G-----7------5-----4-----------------|
D-----7------5-----4--------7-----5--|
A-----5------3-----2--------7-----5--|
E---------------------------5-----3--|
Comments