Libertines - Music When The Lights Go Out Chords & Tabs

 

Music When The Lights Go Out Chords & Tabs

Libertines Chords & Tabs

Version: 2 Type: Tab 0 ratings
1 star 2 stars 3 stars 4 stars 5 stars
comments

Music When The Lights Go Out Tab

   
MUSIC WHEN THE LIGHTS GO OUT

cello (guitar in the album) riff:

e------------------|
b------------------|
g---------------9--|
d------------------|
a---7-8-9-10-------|
E------------------|

e--------------------|
b--------------------|
g---------------9-9--|
d--------------------|
a---7-8-9-10---------|
E--------------------|

e-----------------------------|
b-----------------------------|
g---------------9---9-7-------|
d-----------------------------|
a---7-8-9-10------------------|
E-----------------------------|


VERSE:

C
Em
Am
C
Dm7 (x00211)
G


CHORUS

F-C
F-C
F-F#7
G
G-F#-F

2nd guitar on chorus

SOLO (1:21)
[ Tab from: http://www.guitartabs.cc/tabs/l/libertines/music_when_the_lights_go_out_tab_ver_2.html ]
e-----------------------------------------------------------8-8--------------13-13-13-13-13-14-15-----15---14--------|
b-----------------------------------------------------------8-8---8----------13-13-13-13-13-14-15-----15---14--------|
g---------------8---8---8-----10b-10-8----8--8-----------------10----------------------------------------------------|
d--------8--10---10--10--10-------------10--10--10------------------10-8---------------------------------------------|
a---8/10-----------------------------------------------------------------10------------------------------------------|
E--------------------------------------------------------------------------------------------------------------------|

e------------------------------------------------------------8-8--11--8------13-13-13-13-13-14-15-----15---14---13---|
b------------------------------------------------------------8-8---8--8------13-13-13-13-13-14-15-----15---14---13---|
g---------------8---8---8-----10b-10-8-----8--8-------------------------10-8-----------------------------------------|
d--------8--10---10--10--10-------------10--10--10-------------------------------------------------------------------|
a---8/10-------------------------------------------------------------------------------------------------------------|
E--------------------------------------------------------------------------------------------------------------------|
Comments