Libertines - Music When The Lights Go Out Chords & Tabs

 

Music When The Lights Go Out Chords & Tabs

Libertines Chords & Tabs

Version: 1 Type: Tab 0 ratings
1 star 2 stars 3 stars 4 stars 5 stars
comments

Music When The Lights Go Out Tab

   
-------------------------------------------------------------------------------
			     Music When the Lights go out - The Libertines
-------------------------------------------------------------------------------
Tabbed by: matthawkins
Email: mattyhawkins@hotmail.com

Tuning: Standard

The main chord part goes something like this:

   C     C(?)      Am             Dm                    G
e|-0-00--0-0-00---0-00--0---0-----1-11--0h1p0h1p0---3-33--3-3-33-------------|
B|-1-11--0-0-00---1-11--1---1-----3-33--3---3-------0-00--0-0-00-------------|
G|-0-00--0-0-00---2-22--0h2p0h2p0-2-22--2---2-------0-00--0-0-00-------------|
D|-2-22--2-2-22---2-22--2---2-----0-00--0---0-------0-00--0-0-00-------------|
A|-3-33--3-3-33---0-00--0---0-----x-xx--x---x-------2-22--2-2-22-------------|
E|-x-xx--x-x-xx---x-xx--x---x-----x-xx--x---x-------3-33--3-3-33-------------|

A second guitar does something like this

e|---------------------|x3---------------------------------------------------|
B|------------------5--|x3--5--3-----1---------------------------------------|
G|---------------------|x3--------------4--2---------------------------------|
D|--2---3---4--/5------|x3---------------------------------------------------|
A|---------------------|x3---------------------------------------------------|
E|---------------------|x3---------------------------------------------------|
The part above is repeated several times.
[ Tab from: http://www.guitartabs.cc/tabs/l/libertines/music_when_the_lights_go_out_tab.html ]
The song "speeds up" a couple of times, right after the second part of the tab
above, I haven't worked this out exactly, but this is my best shot at the faster part:

                    D#  C   D#               C  D# C  D# C
e|------------------3--(0)--3----------------0--3--0--3--0-------------------|
B|------------------4---1---4---1----6^6--4--1--4--1--4--1-------------------|
G|--2---3---4---5---3--(0)--3----------------0--3--0--3--0-------------------|
D|---------------------------------------------------------------------------|
A|---------------------------------------------------------------------------|
E|---------------------------------------------------------------------------|

e|-------------5--55-6-7-----------------------------------------------------|
B|--6^6--4--1--6--66-7-8-----------------------------------------------------|
G|---------------------------------------------------------------------------|
D|---------------------------------------------------------------------------|
A|---------------------------------------------------------------------------|
E|---------------------------------------------------------------------------|

This song is from The Libertines' new self-titled album.

Enjoy it, and correct any mistakes you find, but I think I've got it just about right.

| ^  bend
| /  slide up
| \  slide down
| h  hammer-on
| p  pull-off
| ~  vibrato
| +  harmonic
| x  Mute note
===============================================================================
Comments