Libertines - Ha Ha Wall Chords & Tabs

 

Ha Ha Wall Chords & Tabs

Libertines Chords & Tabs

Version: 1 Type: Tab 0 ratings
1 star 2 stars 3 stars 4 stars 5 stars
comments

Ha Ha Wall Tab

   
Libertines - Ha Ha Wall

Tabbed by: N.Coughlan
Tuning: Standard


Main riff:
     Bm    E A       D Db
If you Get tired of just hanging around....
e|------------------------------|
B|------------------------------|
G|---------9--------------------|
D|---9-9---9-7-7-7---12-11------|
A|---9-9---7-7-7-7---12-11------|
E|---7-7-----5-5-5---10-9-------|
[ Tab from: http://www.guitartabs.cc/tabs/l/libertines/ha_ha_wall_tab.html ]
Chorus:
      Bm          E            F#
It's been a long war and now I'm tired and dirty
e|-----------------------------------------------|
B|----------------------9-9-9--------------------|
G|----------------9-9-9-9-9-9--11-11-11-11-------|
D|---9-9-9-9-9-9--9-9-9-9-9-9--11-11-11-11-------|
A|---9-9-9-9-9-9--7-7-7-7-7-7--9--9--9--9--------|
E|---7-7-7-7-7-7---------------------------------|


=============================================================================
Comments