Libertines - France Chords & Tabs

 

France Chords & Tabs

Libertines Chords & Tabs

Version: 2 Type: Tab

France Tab

   
   Bm          G7                    E                     E          F#
e--2-2-2-2-2---0-0-0-0-0-------------0-0-0-0-0-------------0-0-0-------2-|
B--3-3-3-3-3---0-0-0-0-0-------------0-0-0-0-0-------------0-0-0-------2-|
G--4-4-4-4-4---0-0-0-0-0-------------1-1-1-1-1-------------1-1-1-------2-|
D--4-4-4-4-4---0-0-0-0-0-------------2-2-2-2-2-------------2-2-2-------4-|
A--2-2-2-2-2---2-2-2-2-2-------------2-2-2-2-2-------------2-2-2-------4-|
E--2-2-2-2-2---3-3-3-3-3-------------0-0-0-0-0-------------0-0-0-------2-|

Bm             G7                    E                     E
the ideal girl to london from france came over and left me she left me
F#
entranced

   Bm          G7                    E                     E          F#
e--2-2-2-2-2---0-0-0-0-0-------------0-0-0-0-0-------------0-0-0-------2-|
B--3-3-3-3-3---0-0-0-0-0-------------0-0-0-0-0-------------0-0-0-------2-|
G--4-4-4-4-4---0-0-0-0-0-------------1-1-1-1-1-------------1-1-1-------2-|
D--4-4-4-4-4---0-0-0-0-0-------------2-2-2-2-2-------------2-2-2-------4-|
A--2-2-2-2-2---2-2-2-2-2-------------2-2-2-2-2-------------2-2-2-------4-|
E--2-2-2-2-2---3-3-3-3-3-------------0-0-0-0-0-------------0-0-0-------2-|


Bm                   G7                   E             F#
now I have to get by once again on my own nothing but...memories


   Bm          G7                    E                     E          F#
e--2-2-2-2-2---0-0-0-0-0-------------0-0-0-0-0-------------0-0-0-------2-|
B--3-3-3-3-3---0-0-0-0-0-------------0-0-0-0-0-------------0-0-0-------2-|
G--4-4-4-4-4---0-0-0-0-0-------------1-1-1-1-1-------------1-1-1-------2-|
D--4-4-4-4-4---0-0-0-0-0-------------2-2-2-2-2-------------2-2-2-------4-|
A--2-2-2-2-2---2-2-2-2-2-------------2-2-2-2-2-------------2-2-2-------4-|
E--2-2-2-2-2---3-3-3-3-3-------------0-0-0-0-0-------------0-0-0-------2-|
[ Tab from: http://www.guitartabs.cc/tabs/l/libertines/france_tab_ver_2.html ]
  Bm                      G7                      E
  so I remember your eyes that fine shade of brown while these blue eyes of
                     F#
 mine they stay closed


   Bm          G7                    E                     E          F#
e--2-2-2-2-2---0-0-0-0-0-------------0-0-0-0-0-------------0-0-0-------2-|
B--3-3-3-3-3---0-0-0-0-0-------------0-0-0-0-0-------------0-0-0-------2-|
G--4-4-4-4-4---0-0-0-0-0-------------1-1-1-1-1-------------1-1-1-------2-|
D--4-4-4-4-4---0-0-0-0-0-------------2-2-2-2-2-------------2-2-2-------4-|
A--2-2-2-2-2---2-2-2-2-2-------------2-2-2-2-2-------------2-2-2-------4-|
E--2-2-2-2-2---3-3-3-3-3-------------0-0-0-0-0-------------0-0-0-------2-|

Bm                          G7    E             F#
I kissed you goodbye on the M-109 I choked as I watched the bus go

e-----------x-x-x--------------------------------|
B-----------x-x-x--------------------------------|
G-----------4-4-4---------------------------3----|
D-----------5-5-5-----------------4--------4-4---|
A-----------5-5-5----------------4-4------4---4--|
E-7-5-3-2-3-3-3-3-0-0-1-2-1-0-0h2----2-0h2-----2-|


e-----------x-x-x-------------------------------|
B-----------x-x-x-------------------------------|
G-----------4-4-4------------------3------------|
D-----------5-5-5-----------------4-4-----------|
A-----------5-5-5----------------4---4-2--------|
E-7-5-3-2-3-3-3-3-0-0-1-2-1-0-0h2---------------|

   Bm          G7                    E                     E          F#
e--2-2-2-2-2---0-0-0-0-0-------------0-0-0-0-0-------------0-0-0-------2-|
B--3-3-3-3-3---0-0-0-0-0-------------0-0-0-0-0-------------0-0-0-------2-|
G--4-4-4-4-4---0-0-0-0-0-------------1-1-1-1-1-------------1-1-1-------2-|
D--4-4-4-4-4---0-0-0-0-0-------------2-2-2-2-2-------------2-2-2-------4-|
A--2-2-2-2-2---2-2-2-2-2-------------2-2-2-2-2-------------2-2-2-------4-|
E--2-2-2-2-2---3-3-3-3-3-------------0-0-0-0-0-------------0-0-0-------2-|

Bm                              G7           E
I'm choking and smoking to your angelic soul I'm choking and smoking myself
     F#
into a hole

Bm                           G7                         E       F#
Where the only way out is to sleep and to dream and to cry out your name