Libertines - France Chords & Tabs

 

France Chords & Tabs

Libertines Chords & Tabs

Version: 2 Type: Chords 0 ratings
1 star 2 stars 3 stars 4 stars 5 stars
comments

France Chords

   
if you read France all the chords are pretty much exact but i noticed no solo, so my
attempt at a solo. (it got me an A in my performing GCSE)

comments to brotherhood_of_ted@hotmail.com ...be kind it's my first tab


do the chord bit in t'other one...(the strumming is fairly simple)


e-1-------|
b-3-----1-|
g-4---1-3-|
d-4---2-4-|
a-1-2-2-4-|
E---3-0-1-| (thats the simple chords) to get into the solo...ok
[ Tab from: http://www.guitartabs.cc/tabs/l/libertines/france_crd_ver_2.html ]
e--------------------------|----------------------------------------------|
b--------------------------|---------7-5-3-2------------------------------|
g--------------------------|-4-3-4-3---------4--7\6\7\6>>>4-2-4-7-6-7-6-4-|
d--------------------------|-5-4-5-4--------------------------------------|
a--------------------------|-5-4-5-4--------------------------------------|
E-7-5-3-2-0-0-0-1-2-1-0-2-2|-3-2-3-2--------------------------------------|


e------------------------------------------------------------------------|
b------------------------------------------------------------------------|
g--13-12-11-10-9-8-7-6-5----4-7\6\7\6-4-2-4-7-4-11-13-12-11-10-9-8-7-6-5-|
d----------------------------------------4-------------------------------|
a------------------------------------------------------------------------|
E------------------------------------------------------------------------|

e------------------|
b---------7-5-3-2-3|
g-4-3-4-3---------4|
d-5-4-5-4---------4|    it's not 100% but it'll sound good on an acoustic
a-5-4-5-4---------2|    and electric.
E-3-2-3-2----------|
Comments