Libertines - Dont Look Back Into The Sun Chords & Tabs

 

Dont Look Back Into The Sun Chords & Tabs

Libertines Chords & Tabs

Version: 4 Type: Tab 0 ratings
1 star 2 stars 3 stars 4 stars 5 stars
comments

Dont Look Back Into The Sun Tab

----------------------------------------------------------------------------
	         LIBERTINES - Don't Look Back Into The Sun
----------------------------------------------------------------------------
Tabbed by: Rich Whiting
Email: richardwhiting87@hotmail.com

[ Tab from: http://www.guitartabs.cc/tabs/l/libertines/dont_look_back_into_the_sun_tab_ver_4.html ]
e|--------------------------------------------------------------------------|
B|--------------------------------------------------------------------------|
G|---4-5-7-5-4---4-5-7-5-4-4---4-5-7--4-5-7-5-4---4-5-7-5-4-4---------------|
D|--------------------------------------------------------------------------|
A|--------------------------------------------------------------------------|
E|--------------------------------------------------------------------------|


e|-------3------3-------5-3-2-3-2-3-----------------------------------------|
B|--3h5---3h5---5-3-----------------33--33-3-3-1-1-0-0----------------------|
G|----------------------------------------------------2-2---0---------------|
D|--------------------------------------------------------------------------|
A|--------------------------------------------------------------------------|
E|--------------------------------------------------------------------------|
Comments