Libertines - Death On The Stairs Chords & Tabs

 

Death On The Stairs Chords & Tabs

Libertines Chords & Tabs

Version: 1 Type: Tab 0 ratings
1 star 2 stars 3 stars 4 stars 5 stars
comments

Death On The Stairs Tab

   
AUTHOR:LOZ
SONG:DEATH ON THE STAIRS COMPLETE
BAND: THE LIBERTINES
ONE OF THEIR BEST SONGS, MY FIRST TAB SO PLEASE RATE.

100% CORRECT


E-8-9---6-----------------------------------|
B-8-8---6-------------4-3-------------------|
G-8-8---7--X1----33-5----4-3-X3-----5-3-----|
D-X-X---8-----------------------------------|
A-8-8---8-----------------------------------|
E-X-X---6-----------------------------------|


A#
F
G G
C F               X2
A# D#
C F
A#

A#  D#  C  F  X2

E----------------------------------------|
B--3-4-6-4-3---(X3)--3-4-6-66666666------|
G----------------------------------------|
D----------------------------------------|
A----------------------------------------|
E----------------------------------------|

A#
F
G G               X2
A# D#
C F
A#

A#  D#  C  F  X2

E----------------------------------------|
B--3-4-6-4-3---(X3)--3-4-6-66666666------|
G----------------------------------------|
D----------------------------------------|
A----------------------------------------|
E----------------------------------------|

A#

SOLO:
[ Tab from: http://www.guitartabs.cc/tabs/l/libertines/death_on_the_stairs_tab.html ]
E--------------------------------------------------------------------------|
B--------------------------------------------------------------------------|
G---15-------15b-15b-15b---17-15-15----------------------------------------|
D---15---------------------------------------15-17-15-17-------------------|
A---13----------------------------------15-17------------------------------|
E--------------------------------------------------------------------------|

E--18-18-18-18-17-17-17-15-15------------------------------------------------|
B-----------------------------18-18-18-18-16-16-16-15-15---------------------|
G----------------------------------------------------------------------------|
D----------------------------------------------------------------------------|
A----------------------------------------------------------------------------|
E----------------------------------------------------------------------------|


E-----------------------------------------------------|
B-----------------------------------------------------|
G--15b-15b-15-15-15-17-15-17-15-17-15-15-15-15--------|
D-----------------------------------------------------|
A-----------------------------------------------------|
E-----------------------------------------------------|

  A#   F   G   G   C   F   A#   D#
E-------------------------------------------------------|
B-----------16-15---------------------------------------|PLAY UNTIL THE END
G--15-15-17-------16-15---------------------------------|
D-------------------------------------------------------|
A-------------------------------------------------------|
E-------------------------------------------------------|

END ON        A#
Comments