Libertines - Can't Stand Me Now Chords & Tabs

 

Can't Stand Me Now Chords & Tabs

Libertines Chords & Tabs

Version: 2 Type: Tab 0 ratings
1 star 2 stars 3 stars 4 stars 5 stars
comments

Can't Stand Me Now Tab

Tab Leon Blanchard leonblanchard@hotmail.com if u want anything e-mail me

				THE LIBERTINES
                       CANT STAND ME NOW

Intro:

Guitar 1

e|----------------------| 
B|----------------------| 
G|----------------------|
D|----------------------|
A|----------------------|
E|--0-0-0-0-0-0-0-0-0-0-|

Bass Line

G|----------------------|
D|----------------------|
A|----------------------|
E|--0-4-7-9-------------|  x2


Guitar 2

e|--16------16--16------| 
B|--17----17------17----| 
G|--18--18----------18--|
D|----------------------|
A|----------------------|
E|----------------------|

e|------16--16----------| 
B|---17-------17--17----| 
G|-18-----------18------|
D|----------------------|
A|----------------------|
E|----------------------|

e|-16------16--16-16-16-| 
B|---17----17--17-17-17-| 
G|-----18--18-----------|
D|----------------------|
A|----------------------|
E|----------------------|
[ Tab from: http://www.guitartabs.cc/tabs/l/libertines/cant_stand_me_now_tab_ver_2.html ]
e|-16---12-12-12-12-12--| 
B|-17---12-12-12-12-12--| 
G|----------------------|
D|----------------------|
A|----------------------|
E|----------------------|





 Guitar 1

e|----------------------| 
B|-------12-------12----| 
G|--13h14----13h14------|
D|----------------------|
A|----------------------|
E|----------------------|





e|----------------------| 
B|----------------------| 
G|----------------------|
D|----------------------|
A|--7-7-9-7-6-7---------|
E|--0-0-0-0-0-0---------|  x2


e|----------------------| 
B|----------------------| 
G|----------------------|
D|----------------------|
A|--7-7-9-7-6-7---------|
E|--5-5-5-5-5-5---------|  x2

Guitar 2

e|----------------------|     
B|-16h17-----17-16-17---| 
G|------18------------16|
D|--------18------------|
A|----------------------|
E|----------------------|

e|----------------------| 
B|-16h17----------------| 
G|------18--18-16-16----|
D|--------18------16----|
A|----------------------|
E|----------------------|
Comments