Libertines - Can't Stand Me Now Chords & Tabs

 

Can't Stand Me Now Chords & Tabs

Libertines Chords & Tabs

Version: 1 Type: Tab 3 ratings
1 star 2 stars 3 stars 4 stars 5 stars
comments

Can't Stand Me Now Tab

   
                               CAN'T STAND ME NOW
                         As recorded by The Libertines
                     (From the 2004 Album THE LIBERTINES)

Words and Music by Carlos Barat/Pete Doherty/Mark Myers
Arranged by Mick Jones
Transcribed by Joshua Lachkovic [ClassOfAllMyLove] - libertinenation@gmail.com



FIRST INTRO
 A                         B                         E
4/4
 Gtr I
  E     E     E     E       E     E  E     E  E        W           +W
|--------5----------------|-----------7-------------|------------|---------|
|--------------5----------|--------7--------7-------|---9--------|--(9)----|
|--6-----------------6----|--8-----------------8----|---9--------|--(9)----|
|-------------------------|--9-----------------9----|---9--------|--(9)----|
|-------------------------|-------------------------|---7--------|--(7)----|
|-------------------------|-------------------------|------------|---------|
|
| Gtr II
|  E  E  E  E  E  E  E  E    E  E  E  E  E  E  E  E     W           +W
|-------------------------|-------16----16----16----|-^16--------|-(16)----|
|-16-17-17-17-16-17-17----|----17-------17----17----|-^17--------|-(17)----|
|----------------------18-|-18-------18----18----18-|-^18--------|-(18)----|
|-------------------------|-------------------------|------------|---------|
|-------------------------|-------------------------|------------|---------|
|-------------------------|-------------------------|------------|---------|





MAIN INTRO
 E E E E E E E E   E E E E E E E E     E E E E E E E E   E E E E E  E E  E
|-----------------|-----------------|-------------------|-------------------|
|-----------------|-----------------|-------------------|-------------------|
|-----------------|-----------------|-------------------|-------------------|
|-2-2-2-2-2-2-2-2-|-2-2-2-2-2-2-2-2-|---2-2-2-2-2-2-2-2-|-2-2-2-2-2--2-2--2-|
|-----------------|-----------------|-------------------|-------------------|
|-----------------|-----------------|-------------------|-------------------|
|
|                                       W                            Q    Q
|-----------------|-----------------|-!16---------------|-------------------|
|-----------------|-----------------|-!17---------------|----------------17-|
|-----------------|-----------------|-!18---------------|-----------18------|
|-----------------|-----------------|-------------------|-------------------|
|-----------------|-----------------|-------------------|-------------------|
|-----------------|-----------------|-------------------|-------------------|


  E E E E E E E E   E E E E E  E E  E    E E E E E E E E    E  E  E E  E  E E
|------------------|-------------------|------------------|--------------------|
|------------------|-------------------|------------------|--------------------|
|------------------|-------------------|------------------|--------------------|
|--2-2-2-2-2-2-2-2-|-2-2-2-2-2--2-2--2-|--2-2-2-2-2-2-2-2-|--2--2--2-2--2--2-2-|
|------0---0---0---|-0---0---0----0----|--0---0---0---0-0-|--0--0----0-----0---|
|------------------|-------------------|------------------|--------------------|
|
|  W                            Q    E    W                     Q  Q    Q  Q
|-16---------------|-----------16------|------------------|-------16-----------|
|------------------|----------------17-|------------------|----17------17------|
|------------------|-------------------|-18---------------|---------------18---|
|------------------|-------------------|------------------|--------------------|
|------------------|-------------------|------------------|--------------------|
|------------------|-------------------|------------------|--------------------|


  E E E E E E E E   E E  E  E  E  E  E  E
|------------------|-----------------------|
|------------------|-----------------------|
|------------------|-----------------------|
|--2-2-2-2-2-2-2-2-|-2-2--2--2--2--2--2--2-|
|--0---0---0---0-0-|-0---------------------|
|------------------|-----------------------|
|
|  W                      E  E  E  E  E  E
|------------------|--------16-16-16-16-16-|
|-17---------------|-----17----------17----|
|------------------|-----18----------------|
|------------------|-----------------------|
|------------------|-----------------------|
|------------------|-----------------------|


  E  E  E  E  E  E  E  E   E
|-------------------------|----------------------|
|-------------------------|----------------------|
|-------------------------|----------------------|
|--2--2--2--2--2--2--2--2-|-2--------------------|
|--0----------------------|----------------------|
|-------------------------|----------------------|
|
|  E  E  E  E  E  E  E  E   E E  E E  E  E  E  E
|-16-16-16-16-16-16-16-16-|-x-x-16-x-12-12-12-12-|
|-17----17----------------|----------------------|
|-------------------------|----------------------|
|-------------------------|----------------------|
|-------------------------|----------------------|
|-------------------------|----------------------|


  E  E  E  E. E  E  E  E    E  E  E  E  E  E  E  E
|-------------------------|-------------------------|
|-------12-------12-------|-12-------12-------12----|
|-13-14----13h14----13h14-|----13h14----13h14----13-|
|-------------------------|-------------------------|
|-------------------------|-------------------------|
|-------------------------|-------------------------|
|
|  E  E  E  E  E  E  E  E    E  E  E  E  E  E  E  E
|-12-12--x-12-12--x-12-12-|--x-12-12-12--x--x-12-12-|
|-------------------------|-------------------------|
|-------------------------|-------------------------|
|-------------------------|-------------------------|
|-------------------------|-------------------------|
|-------------------------|-------------------------|


  E  E  E  E  E  E  E  E    E  E  E  E   E   E  E   E  E
|-------------------------|-------------------------------|
|-------12-------12-------|-12--9-12-12--12--12-12--12-12-|
|-13h14----13h14----13h14-|-------14-13--14--14-13--13-13-|
|-------------------------|-------------------------------|
|-------------------------|-------------------------------|
|-------------------------|-------------------------------|
|
|  E  E  E  E  E  E  E  E    E  E  E  E   E      E   E  E
|-12-12--x-12-12--x-12-12-|--x-12-12--x--12-----12--12-12-|
|-------------------------|-------------------------------|
|-------------------------|-------------------------------|
|-------------------------|-------------------------------|
|-------------------------|-------------------------------|
|-------------------------|-------------------------------|


  E  E  E  E  E  E  E  E    E  E  E  E  E  E  E  E
|-------------------------|-------------------------|
|-12-12-12-12-12-12-12-12-|-12-12-12-12-12-12-12-12-|
|-13-14-14-13-14-13-14-13-|-14-13-14-13-13-13-14-13-|
|-------------------------|-------------------------|
|-------------------------|-------------------------|
|-------------------------|-------------------------|
|
|  E  E  E  E  E  E  E  E    E  E  E  E  E  E  E  E
|-12-12--x-12-12--x-12-12-|--x-12-12--x-12-12-12-12-|
|-------------------------|-------------------------|
|-------------------------|-------------------------|
|-------------------------|-------------------------|
|-------------------------|-------------------------|
|-------------------------|-------------------------|


  E  E  E  E  E  E  E  E   E  E  E  E     E  E  E
|-------------------------|----------0-----0-------|
|-12-12-12-12-12-12-12-12-|----------0-----0-------|
|-14-13-14-13-14-14-13-13-|----------0-----0-------|
|-------------------------|-0--0--0--0-------------|
|-------------------------|-0--0--0--0-------------|
|-------------------------|-0--0--0--0--------0--0-|
|
|  E  E  E  E  E  E  E  E   E  E  E  E  E  E  E  E
|-12-12--x-12-12--x-12-12-|-x-12-12-12-12-12-12-12-|
|-------------------------|------------------------|
|-------------------------|------------------------|
|-------------------------|------------------------|
|-------------------------|------------------------|
|-------------------------|------------------------|


 E
  E  E  E  E  E E     E      E  E  E E E     E
|------------------------|----------------------|
|--------------9-9-----9-|------------9-9-------|
|--------------9-9-----9-|------------9-9-----6-|
|--9--9-11--9--9-9-----9-|----9-11--9-9-9-----5-|
|--7--7--7--7--7-7-----7-|----7--7--7-7-7-----7-|
|------------------------|--------------------5-|
|
|  E  E  E  E  E E  E  E    E E  E  E E E  E  E
|-12-12--x-12-12-x-12-12-|-12-x--x-12-x-x-12-12-|
|------------------------|----------------------|
|------------------------|----------------------|
|------------------------|----------------------|
|------------------------|----------------------|
|------------------------|----------------------|


 A7
  E E  E  E  E  E  E  E   E  E  E  E  E  E E
|------------------------|-----------------------|
|------------------------|-----------------------|
|--6-6--6--6--6--6--6--6-|-6--6--6--6--6--6------|
|--5-5--5--5--5--5--5--5-|-5--5--5--5--5--5------|
|--7-7--7--7--7--7--7--7-|-7--9--7--7--7--7-0----|
|--5-5--5--5--5--5--5--5-|-5--5--5--5--5--5------|
|
|  E E  E  E  E  E  E  E      E  E  E  E  E    E
|-12-x-12-12-12-12-12-12-|---12-12-12-12-12---12-|
|------------------------|-----------------------|
|------------------------|-----------------------|
|------------------------|-----------------------|
|------------------------|-----------------------|
|------------------------|-----------------------|


 C#m                     B
  E    E    E     E       E    E    E     E
|-------9---------------|-------7---------------|
|------------9----------|------------7----------|
|--9---------------9----|--8---------5-----8----|
|-----------------------|--9---------------9----|
|-----------------------|-----------------------|
|-----------------------|-----------------------|
|
|  E  E E  E E  E  E  E    E  E E  E E  E  E  E
|-11h12-x-12-x-12-12-12-|-11h12-x-12-x-12-12-12-|
|-----------------------|-----------------------|
|-----------------------|-----------------------|
|-----------------------|-----------------------|
|-----------------------|-----------------------|
|-----------------------|-----------------------|


 A                       B
  E    E    E     E       E  E E  E  E  E  E  E
|-------5---------------|--7--7----7-----7--7--0-|
|-------6----5----------|--7--7----7-----7--7--0-|
|--6---------6-----6----|--8--8----8-----8--8--1-|
|--7---------------7----|------------------------|
|-----------------------|------------------------|
|-----------------------|------------------------|
|
|  E  E E  E E  E  E  E    E  E E  E  E  E  E  E
|-11-12-x-12-x-12-12-12-|-11-12-x-12-11h12-12-12-|
|-----------------------|------------------------|
|-----------------------|------------------------|
|-----------------------|------------------------|
|-----------------------|------------------------|
|-----------------------|------------------------|




VERSE
   E
   W                 +W          Q Q  Q
||------------------|--------------------|
||o-9---------------|-(9)---------9-9S14-|
||--9---------------|-(9)---------9-9S14-|
||--9---------------|-(9)---------9-9S14-|
||o-7---------------|-(7)---------7-7S12-|
||--0---------------|-(0)----------------|
|
|   E E E E E E E E    E  E E E E E E  E
||------4---4-------|--4----4---4---4--5-|
||o-5-5---5---5-5-5-|-----5---5---5------|
||------------------|--------------------|
||------------------|--------------------|
||o-----------------|--------------------|
||------------------|--------------------|
   An ending fitting....
[ Tab from: http://www.guitartabs.cc/tabs/l/libertines/cant_stand_me_now_tab.html ]
 A
  W                  +W
|------------------|---------------------|
|-14---------------|-(14)----------------|
|-14---------------|-(14)----------------|
|-14---------------|-(14)----------------|
|-12---------------|-(12)----------------|
|------------------|---------------------|
|
|  E E E E E E E E        E E E E  E E E
|--7-7-7-5-5-5-4---|------4---4-4--4-4-4-|
|----------------5-|--------5---5--5-5-5-|
|------------------|---------------------|
|------------------|---------------------|
|------------------|---------------------|
|------------------|---------------------|


 C#m                B                 A
 E   E   E    E     E   E   E   E     E  E   E   E E
|-9----------------|-----7-----------|----5-----------|
|-----9---5--------|---------7-------|--------5-------|
|--------------9---|-8-----------8---|-6----------6S8-|
|-------------11---|-----------------|----------------|
|------------------|-----------------|----------------|
|------------------|-----------------|----------------|
|
| E E E E E E  E E   E E E E   E E E   E  E E   E E E
|-5-4-4-5-4-4--4-4-|-7-7-7-5---4---4-|-4--4-4---4-4-4-|
|-5-5-5-5-5-5--5-5-|-------------5---|-5--5-5---5-5-5-|
|------------------|-----------------|----------------|
|------------------|-----------------|----------------|
|------------------|-----------------|----------------|
|------------------|-----------------|----------------|


 B                E
 E   E E  E E E   E  E E  E E E   E   E E  E E E
|-7---7-7--------|---------------|--------------0-|
|-7---7-7--------|-9--9-9--9-9-9-|-9---9-9--9-9-0-|
|-8---8-8--8-8-0-|-9--9-9--9-9-9-|-9---9-9--9-9-0-|
|-9---9-9--9-9-0-|-9--9-9--9-9-9-|-9---9-9--9-9-0-|
|----------------|-7--7-7--7-7-7-|-7---7-7--7-7---|
|----------------|---------------|----------------|
|
| E E   E  E E E   E  E E    E E   E E E E  E E E
|-5-5---4--4-4-4-|-4--4-4----4-4-|-5-5-4-7--5-4-4-|
|-5-5---5--5-5-5-|-5--5-5----5-5-|-5-5-5------5-5-|
|----------------|---------------|----------------|
|----------------|---------------|----------------|
|----------------|---------------|----------------|
|----------------|---------------|----------------|


 A                                   C#m
 E   E E   E E E   E   E E   E E E    E     E   E E E
|-5---5-5---5-5-5-|-5---5-5---5-5-5S|==9-----9---------|
|-5---5-5---5-5-5-|-5---5-5---5-5-5S|=10---------9-----|
|-6---6-6---6-6-6-|-6---6-6---6-6-6S|==9---------------|
|-7---7-7---7-7-7-|-7---7-7---7-7-7S|=11-----------9-9-|
|-----------------|-----------------|------------------|
|-----------------|-----------------|------------------|
|
| E E E E E E E E   E E E E E E E E    E E E E E E E E
|---4---4---4---4-|-------------4---|--5-4-4-7-7-5-4---|
|-5---5---5---5---|-4h5-5-4h5-5---5-|--5-5-5---------5-|
|-----------------|-----------------|------------------|
|-----------------|-----------------|------------------|
|-----------------|-----------------|------------------|
|-----------------|-----------------|------------------|


 B                A                B
 E  E E   E E E   E  E E   E E E   E   E E  E E E
|------7---------|-5--5-5---5-5---|-------7--------||
|-7----7---------|-5--5-5---5-5---|-7---7-7--7-7---||
|-8--8-8---8-8-6-|-6--6-6---6-6-8-|-8---8-8--8-8-0-||
|-9--9-----9-9-7-|-7--7-7---7-7-9-|-9---9-9--9-9-0-||
|----------------|----------------|--------------0-||
|----------------|----------------|----------------||
|
| E  E E E E E E   E  E   E E E E   E E E E  E E E
|-4--4-------4---|-0--0-----4---4-|-5-4---5--4-----||
|-5--5-4h5-5---5-|-5--5---5---5---|-5-5-5-5--------||
|----------------|----------------|----------------||
|----------------|----------------|------------x-x-||
|----------------|----------------|------------x-x-||
|----------------|----------------|------------x-x-||




PRE-CHROUS
 E                         C#m
 Q     Q       Q    Q       Q      Q
 |     |       |    |       |      |
 /     /       /    /       /      /

 E  W       E       E       E  E E E E
|----------|------------|----9--x-x-x-x-|
|-9--------|-9-------9--|----9--x-x-x-x-|
|-9--------|-9-------9--|----9--x-x-x-x-|
|-9--------|-9-------9--|---11--x-x-x-x-|
|-7--------|-7-------7--|---------------|
|----------|------------|---------------|
  If you wanna try...
  I know you lie...

    C#m                                 B
 E   E   E  E  E     E  E  E   E  E E   E  E  E  E E
|-----9---9--9--9--|--9--9--9---9--0-0-||--------------|
|-x---9---9--9--9--|--9--9--9---9--0-0-||-7--7---------|
|-x---9---9--9--9--|--9--9--9---9--0-0-||-8--8--x--8---|
|-x--11--11-11-11--|-11-11-11--11------||-9--9--x----9-|
|-x----------------|-------------------||--------------|
|------------------|-------------------||--------------|
                                          I'll take you ...

 A              B               A
   E  E E E E   E  E  E E E E   E  E  E E E E
|--------------|---------------|---------------|
|---5----------|---------------|---------------|
|---6--x-6-----|-7--7----------|-5--5----6-6-6-|
|---7--x---7-7-|-8--8--x-8-8-6-|-6--6--x-7-7-7-|
|--------------|-9--9--x-9-9-7-|-7--7--x-------|
|--------------|---------------|---------------|

                                   CHORUS
 F#                                 E
 E  E  E E E E   E E E E E E E E    E E E E E E E E
|----2--2-2-2-2S|=7-7-7-7-7-7-7-7-||-----------------|
|-2--2--2-2-2-2S|=7-7-7-7-7-7-7-7-||-5-5-5-5-5-5-5-5-|
|-2--3--3-3-3-3S|=8-8-8-8-8-8-8-8-||-----------------|
|-4--4--4-4-4-3S|=9-9-9-9-9-9-9-9-||-----------------|
|---------------|-----------------||-----------------|
|---------------|-----------------||-----------------|
                                     Can't Stand you...

                   A
 E E E E E E E E   E E E E E E E E   E E E E E E E E
|-----------------|-----------------|-----------------|
|-5-5-5-5-5-5-5-5-|-5-5-5-5-5-5-5-5-|-5-5-5-5-5-5-5-5-|
|-----------------|-----------------|-----------------|
|-----------------|-----------------|-----------------|
|-----------------|-----------------|-----------------|
|-----------------|-----------------|-----------------|


 E                                   A
 E E E E E E E E   E E E E E E E E   E E E E E E E E
|-----------------|-----------------|-----------------|
|-5-5-5-5-5-5-5-5-|-5-5-5-5-5-5-5-5-|-5-5-5-5-5-5-5-5-|
|-----------------|-----------------|-----------------|
|-----------------|-----------------|-----------------|
|-----------------|-----------------|-----------------|
|-----------------|-----------------|-----------------|


 1.                  2.
                                        E
 E E E E E E E E     E E E E E E E E    E E E  E  E E
|------------------||-----------------||-4-4-4--4--4-4-|
|-5-5-5-5-5-5-5-5-o||-5-5-5-5-5-5-5-5-||-5-5-5--5--5-5-|
|------------------||-----------------||---------------|
|------------------||-----------------||---------------|
|-----------------o||-----------------||---------------|
|------------------||-----------------||---------------|


              A
 E E  E  E    E E E E E E E E   E E E E E E E E
|-4-5--5--4--|-4-4-4-4-4-4-4-4-|-0---0-0-----4----|
|-5-5--5--5--|-5-5-5-5-5-5-5-5-|-4-5-5-5-5-5---5--|
|------------|-----------------|------------------|
|------------|-----------------|------------------|
|------------|-----------------|------------------|
|------------|-----------------|------------------|


 E              A              A
 E E E  E  E    E E E  E  E      E E E E E E
|-4-4-4--4--4--|-4---4--4--4--|---4---4---4---|
|-5-5-5--5--5--|-5-5-5--5--5--|-----5---5---5-|
|--------------|--------------|---------------|
|--------------|--------------|---------------|
|--------------|--------------|---------------|
|--------------|--------------|---------------|


                  E       EsEs4         EsEs4        A
 E E E E  E E E   E E E E E E E E   E E E E  E E E   E E E E E E E E
|-4---4-5--4-4-4-|-4---4-------4---|-4---4-5--4-4-4-|-7-7-5-5-5-4---4-|
|---5--------5-5-|---5---5-4h5---5-|---5------------|-------------5---|
|----------------|-----------------|----------------|-----------------|
|----------------|-----------------|----------------|-----------------|
|----------------|-----------------|----------------|-----------------|
|----------------|-----------------|----------------|-----------------|


                 C#m
 E E E E   E E    E  E  E  E  E  E  E  E
|-7-7-7-5---4---|-------------------------|
|-------------5S|=17-17-17-17-17-17-17-17-|
|---------------|-------------------------|
|---------------|-------------------------|
|---------------|-------------------------|
|---------------|-------------------------|
                   HARMONICA STARTS

 B                         A
  E  E  E  E  E  E  E  E    E  E  E  E  E  E  E  E
|-------------------------|-------------------------|
|-17-17-17-17-17-17-17-17-|-16h17-17-16h17-17-17-17-|
|-------------------------|-------------------------|
|-------------------------|-------------------------|
|-------------------------|-------------------------|
|-------------------------|-------------------------|


 B                       E
  E  E  E  E   E  E  E    E  E  E   E  E  E  E
|-----------------------|-----------------------|
|-19-19-19-17--16-17-16-|-17h19-17--16-17-19-17-|
|-----------------------|-----------------------|
|-----------------------|-----------------------|
|-----------------------|-----------------------|
|-----------------------|-----------------------|


                       A
   E  E  E   E  E  E    E  E  E   E   E  E
|---------------------|---------------16----|
|--16-17-19--17-16-16-|-17------------17----|
|---------------------|----18-18--18-----18-|
|---------------------|---------------------|
|---------------------|---------------------|
|---------------------|---------------------|


                           E     C#       G#    E
  E  E  E  E  E  E  E  E    E  E  E  E  E  E  E  E  E  E
|----16-16-------16-16----|-16-16-16----------16-16-------|
|----17-17-17----17-17----|-17-17-17-17-17----17-17-17-17-|
|-18----------18-------18-|-18-18-18-------18-18-18-------|
|-------------------------|-------------------------------|
|-------------------------|-------------------------------|
|-------------------------|-------------------------------|


 D#       B        F#       D#
  E  E  E  E  E  E  E  E  E  E  E  E
|----16-16-16-16-16-16-16-16-16-16-16-|
|----17-17-17-17-17-17-17-17-17-17-17-|
|-18-18-18-18-18-18-18-18-18-18-18-18-|
|-------------------------------------|
|-------------------------------------|
|-------------------------------------|


 C#       A        E        A
  E  E  E  E  E  E  E  E  E  E  E  E
|----16-16-16-16-16-16-16-16-16-16-16-|
|----17-17-17-17-17-17-17-17-17-17-17-|
|-18-18-18-18-18-18-18-18-18-18-18-18-|
|-------------------------------------|
|-------------------------------------|
|-------------------------------------|


 B                               E
  E  E  E  E  E  E  E  E  E  E     W     +W
|----16-16----16----16----16----|-^16----(16)-*|
|----14-17----17----17----17----|-^17----(17)-*|
|-18----18-18-18-18-18-18-18-18-|-^18----(18)-*|
|-------------------------------|-------------*|
|-------------------------------|-------------*|
|-------------------------------|-------------*|
Comments