Libertines - Can't Stand Me Now Chords & Tabs

 

Can't Stand Me Now Chords & Tabs

Libertines Chords & Tabs

Version: 1 Type: Bass Tab

Can't Stand Me Now Bass Tab

Intro
G|--------------------------------------------------------------------|
D|--------------------------------------------------------------------|
A|--0-0-0-0-0-0-0-2---2-2-2-2-2-2-2-----------------------------------|
E|----------------------------------0---------------------------------|

G|--------------------|
D|----------------4---|
A|----------2-2-2-----|
E|--0-0-4-4-----------| X11

G|--------------------------------------------------------------------|
D|--------------------------------------------------------------------|
A|----------2-2-------------2-2-----0-0-----0-0---0---0---0---0---0---|
E|--0-0-4-------4-0---0-4-------4-------------------------------------|

G|--------------------------------------------------------------------|
D|--------------------------------------------------------------------|
A|--4-----4-4-----4-2-----2-2-----2-0-----0-0-----0-2-----2-2-----2---|
E|--------------------------------------------------------------------|

Verse
G|--------------------------------------------------------------------|
D|--------------------------------------------------------------------|
A|----------------------------------0-0---0-0-0---0-0-0---0-0-0---0---|
E|--0-0---0-0-0---0-0-0---0-0-0---0-----------------------------------|

G|--------------------------------------------------------------------|
D|--------------------------------------------------------------------|
A|--4-----4-4-----4-2-----2-2-----2-0-----0-0-----0-2-----2-2-----2---|
E|--------------------------------------------------------------------|

G|--------------------------------------------------------------------|
D|--------------------------------------------------------------------|
A|----------------------------------0-0---0-0-0---0-0-0---0-0-0---0---|
E|--0-0---0-0-0---0-0-0---0-0-0---0-----------------------------------|

G|--------------------------------------------------------------------|
D|----------2-----2---------------------------------------------------|
A|--4-----4---------2-----2-2-----2-0-----0-0-----0-2-----2-2-----2---|
E|--------------------------------------------------------------------|

Pre-Chorus
G|--------------------------------4-6-6-----------------6---4---------|
D|--------------------------4-4-6---------6---------------------6-4---|
A|--7-----7-----------7---7-----------------7---4-----4---------------|
E|----------7---0-----------------------------------------------------| X2

G|--------------------------------------------------2-2-2-2-2-2-2-2---|
D|--------------------------------------------------------------------|
A|--2-2-2-2-2-2-2-2-0-0-0-0-0-0-0-0-2-2-2-2-2-2-2-2-------------------|
E|--------------------------------------------------------------------|

G|------------------------------------|
D|------------------------------------|
A|------------------2-2-2-2-2-2-2-2---|
E|--2-2-2-2-2-2-2-2-------------------|

1st Chorus
     You Can\'t Stand Me Now ....
G|------------------------------------|
D|------------------------------------|
A|--7~--------------7~----------------|
E|------------------------------------| X4
[ Tab from: http://www.guitartabs.cc/tabs/l/libertines/cant_stand_me_now_btab.html ]
G|--------------------------------------------------------------------|
D|--------------------------------------------------------------------|
A|----------------------------------0-0---0-0-0---0-0-0---0-0-0---0---|
E|--0-0---0-0-0---0-0-0---0-0-0-2-4-----------------------------------|

G|--------------------------------------------------------------------|
D|--------------------------------------------------------------------|
A|--4-4-4-4-4-4-4-4-2-2-2-2-2-2-2-2-0-0-0-0-0-0-0-0-2-2-2-2-2-2-2-2---|
E|--------------------------------------------------------------------|

G|--------------------------------------------------------------------|
D|--------------------------------------------------------------------|
A|----------------------------------0-0---0-0-0---0-0-0---0-0-0---0---|
E|--0-0---0-0-0---0-0-0---0-0-0-2-4-----------------------------------|

G|--------------------------------------------------------------------|
D|--------------------------------------------------------------------|
A|--4-4-4-4-4-4-4-4-2-2-2-2-2-2-2-2-0-0-0-0-0-0-0-0-2-2-2-2-2-2-2-2---|
E|--------------------------------------------------------------------|

Pre-Chorus

2nd Chorus
     You Can\'t Stand Me Now ....
G|------------------------------------|
D|------------------------------------|
A|--7~--------------7~----------------|
E|------------------------------------| X4

G|--------------------------------------------------------------------|
D|--------------------------------------------------------------------|
A|--7-7---7-7-7---0-7-7---7-7-7---7-7-7---7-7-7---7-7-7---7-7-7---0---|
E|--------------------------------------------------------------------|

G|--------------------------------------------------------------------|
D|--------------------------------------------------------------------|
A|--7-7---7-7-7---7-7-7---7-7-7---7-7-7---0-7-7---0-7-7---0-7-7---0---|
E|--------------------------------------------------------------------|

Outro
G|--------------------------------------------------------------------|
D|--------------------------------------------------------------------|
A|--2-2-2-2-2-2-2-2-2-2-2-2-2-2-2-2-0-0-0-0-0-0-0-0-0-0-0-0-0-0-0-0---|
E|--------------------------------------------------------------------|

G|--------------------------------------------------------------------|
D|--------------------------------------------------------------------|
A|--4-4-4-4-4-4-4-4-2-2-2-2-2-2-2-2-0-0-0-0-0-0-0-0-2-2-2-2-2-2-2-2---|
E|--------------------------------------------------------------------|

G|--------------------------------------------------------------------|
D|--------------------------------------------------------------------|
A|--2-2-2-2-2-2-2-2-2-2-2-2-2-2-2-2-0-0-0-0-0-0-0-0-0-0-0-0-0-0-0-0---|
E|--------------------------------------------------------------------|

G|--------------------------------------------------------------------|
D|--------------------------------------------------------------------|
A|--4-4-4-4-4-4-4-4-2-2-2-2-2-2-2-2-0-0-0-0-0-0-0-0-2-2-2-2-2-2-2-2---|
E|--------------------------------------------------------------------|

G|------------------------------------|
D|------------------------------------|
A|------------------------------------|
E|--0---------------------------------|