Libertines - Arbeit Macht Frei Chords & Tabs

 

Arbeit Macht Frei Chords & Tabs

Libertines Chords & Tabs

Version: 1 Type: Chords 0 ratings
1 star 2 stars 3 stars 4 stars 5 stars
comments

Arbeit Macht Frei Chords

   
----------------------------------------------------------------------------
Arbeit Macht Frei - The Libertines - The Libertines
----------------------------------------------------------------------------
Tabbed by: Lizzip
Email: lml4999@hotmail.com

Tuning: eBGDAE -- standard

Chords used:

       G#   A#    F    C#   D#
e|-----4----1-----1----4----6-------|
B|-----4----3-----1----6----8-------|
G|-----5----3-----2----6----8-------|
D|-----6----3-----3----6----8-------|
A|-----6----1-----3----4----6-------|
E|-----4----1-----1----x----x-------|


 Intro:
        G#  A#  G#  F
e|------4---1---4---1--|
B|------4---3---4---1--|
G|------5---3---5---2--|  X4
D|------6---3---6---3--|
A|------6---1---6---3--|
E|------4---1---4---1--|
[ Tab from: http://www.guitartabs.cc/tabs/l/libertines/arbeit_macht_frei_crd.html ]
 Then:
        G#  A#  G#
e|------4---1---4--|
B|------4---3---4--|
G|------5---3---5--|
D|------6---3---6--|
A|------6---1---6--|
E|------4---1---4--|

 Straight into:
      F        G# A# G#
e|----1-1-1-1--4--1--4-------|
B|----1-1-1-1--4--3--4-------|
G|----2-2-2-2--5--3--5-------| < repeat this section
D|----3-3-3-3--6--3--6-------|
A|----3-3-3-3--6--1--6-------|
E|----1-1-1-1--4--1--4-------|

 When the guitar tab becomes higher play this:

     A#       C# D# C#
e|---1-1-1-1--4--6--4--------|
B|---3-3-3-3--6--8--6--------|
G|---3-3-3-3--6--8--6--------|
D|---3-3-3-3--6--8--6--------|
A|---1-1-1-1--4--6--4--------|
E|---1-1-1-1--x--x--x--------|

 Then go back to the lower one.

LYRICS:

Roll a
Gasper
The guard said he could stay alive but he
shovelled and burned his friends to die
People to die
Oh the gate read
Arbeit macht frei

In her rollers
And a gasper
She cleaned the steps of a mean street where
no policeman walked the beat
Her old man
He don't like blacks or queers
Yet he's proud we beat the Nazis...
How queer

Arbeit Macht Frei
Comments