Liberats - Stalemate Chords & Tabs

 

Stalemate Chords & Tabs

Liberats Chords & Tabs

Version: 1 Type: Tab 0 ratings
1 star 2 stars 3 stars 4 stars 5 stars
comments

Stalemate Tab

   
Band: The Liberats
song: stalemate

tabber: John Cukras
email: riffreaper@yahoo.com

tuning: normal

Riff 1: Put finger on 3 without pressing.                      Not sure bout this part.
E------------------------------------------------------------|----------------------|
B------------------------------------------------------------|----------------------|
G------------------------------------------------------------|----------------------|
D------------------888888--------888888-777-666--------------|-5-4-33-22-------2-3~-|
A----------5555555-666666-101010-666666-555-444----------5---|-3-2------ x's 3------|
E-333333---3333333--------888888------------------x's 2--3---|----------------------|
[ Tab from: http://www.guitartabs.cc/tabs/l/liberats/stalemate_tab.html ]
Riff 2:   A                                     B
E-------------------------------------------|----------------------|
B-------------------------------------------|----------------------|
G-------------------------------------------|--------5-5-5-------5-|
D--------888888--------88888-77-66-55-------|--------3-3-3-------3-|
A-555555-666666-101010-66666-55-44-33-------|--5-5-5-------5-5-5---|
E-333333--------888888--------------- x's 2-|--3-3-3-------3-3-3---|

Riff 3:
E----------------------------------------|
B----------------------------------------|
G----------------------------------------|
D--------88888-101010-9-9-9-88888--------|
A-555555-66666-888888-7-7-7-66666--------|
E-333333-------------------------  x's 2-|

Riff 2

Riff 3

Riff 4:
E---------------------------------------|
B---------------------------------------|
G---------------------------------------|
D-1212121212-101010-888888-777777-------|
A-1010101010-888888-666666-555555-------|
E-------------------------------- x's 2-|

Riff 5:
E------------------------------------------------------------------------|
B------------------------------------------------------------------------|
G------------------------------------------------------------------------|
D-----------8888-77-66-55-44---------8888-77-66-55-44-101010-------------|
A-5---------6666-55-44-33-22-5-------6666-55-44-33-22-88888--------------|
E-3-000000-------------------3-00000-------------------------88-77-66-55-|
pm  ......                     .....                         .. .. .. ..

Riff 3

Riff 4

Riff 2: B (end with G)
Comments