Lhasa - De Cara A La Pared Chords & Tabs

 

De Cara A La Pared Chords & Tabs

Lhasa Chords & Tabs

Version: 1 Type: Tab 0 ratings
1 star 2 stars 3 stars 4 stars 5 stars
comments

De Cara A La Pared Tab

   
De Cara A La Pared - LHASA
http://mapage.noos.fr/weblhasa/v2/textes/fr_textes_llorona_de-cara-a-la-pared.html

Tabbed by Seb Oddos Zappy the Koala

Repeat the following pattern during the verses:

       Dm  5 5 7 7 6 5             0 5 7 0 6 0
E |------------------------------------------|
B |-------6----------------------------------|
G |-----7---7-----------------0-------0------|
D |---7---------------------7------7-----7---|
A |-5--------------5-----5-------------------|
E |-----------4-5----------------8-----------|


     Gm 3 5 5 3 3 3
E |-------------------------------------------------|
B |--------3-----------------3---------------3------|
G |------3-----------------3---3-----------3---3----|
D |----5-----5-----------5---------------5----------|
A |-------------------------------------------------|
E |-3-----------1--3--3-----------1-3-3-------------|

[ Tab from: http://www.guitartabs.cc/tabs/l/lhasa/de_cara_a_la_pared_tab.html ]
   Bb   6 8 8 7 6 6                            A
E |----------------------------------------5-----------------|
B |--------6-------6-------6-------6---------6---6---6-------|
G |------7---7--9--------7---7----7--7---------7---7---7-----|
D |----8--------8--------------------------------------------|
A |----------------------------------------------------------|
E |-6-----------------6---------5-------5--------------------|


Dm                            Gm            Gm  
Llorando ... De cara a la pared, Se para la ciudad. 
Dm                        Bb    A                  Dm
Llorando ... Y no hay más, Muero quizás. Ha! Dónde estás ?


Soñando ... De cara a la pared, Se quema la ciudad.
Soñando ...Sin respirar, Te quiero amor. Te quiero amor.

Fm C# C

Rezando ...De cara a la pared, Se hunde la ciudad.
Rezando ...Santa María, Santa María, Santa María.

Muriendo...
Comments