Lewis Donna - I Love You Always Forever Chords & Tabs

 

I Love You Always Forever Chords & Tabs

Lewis Donna Chords & Tabs

Version: 1 Type: Tab 0 ratings
1 star 2 stars 3 stars 4 stars 5 stars
comments

I Love You Always Forever Tab

Donna Lewis - "I Love You Always Forever"

Intro:
*note--- the note on the A string is a "10", not a 1 then a 0.
E-------------------------------
B-------------------------------
G--------------------12---------   } 4 TIMES
D--------------10------------10-
A--10----------8-----10------8--
E---8---------------------------
just strum these very soft!... i'm not positive about that 
third note so you can try other variations... but 
it's definitely some form of a "G".

Verse:

E---------------------------------------------------------------------------
B---------------------------------------------------------------------------
G--------------------------------------------------------------------------
D----------------------------------------10--10-----10-10-10-10
A--10----10--------10--10--10--10---------8---8------8--8--8--8
E---8----8---------8---8---8---8-----------------------------------

E----------------------------------------------------------------------------
B-----------------------------------------------------------------------------
G----12--12----12--12--12--12-------------------------------------
D----------------------------------10--10-------10--10--10--10-
A----10--10----10--10--10--10------8----8--------8---8---8---8-
E----------------------------------------------------------------------------
[ Tab from: http://www.guitartabs.cc/tabs/l/lewis_donna/i_love_you_always_forever_tab.html ]
do it once alone after the intro, then:
first verse: 4 times
second verse: 4 times
*Note: My strumming is simply to the beat- you can choose to strum
however you want to.


Chorus:

E---------------------------------------------------------------
B---------------------------------------------------------------
G---------------------------------------------------------------} 4 TIMES
D-------------------------------10-10--10-----10--10--10--10--10
A--10-10-10---10-10-10-10-10----8---8---8-----8---8---8---8---8-
E--8---8--8----8--8--8--8--8------------------------------------

You can choose to strum an open C and open
F chords here if you prefer-- but strumming is important-
I like to do it with a fast tempo, almost ska-style- to the beat,
but hey that's just me.  As long as the notes are there, you're fine. 
You can even just strum then one time each if you want.
(i hope i'm making sense here)

Bridge:
(say you'll love love me forever!....)

Single strum these notes:

E-----------------------------------------------------
B-----------------------------------------------------
G-------------12---------------------------------	}4 times
D--------10-----------10--9---7---5----------
A--10----8----10------8---7---5---5--10-----
E---8---------------------------------8-------


Order:
Intro
Verse
Chorus
Verse
Chorus
Bridge
Chorus
Comments