Levellers - Sell Out Chords & Tabs

 

Sell Out Chords & Tabs

Levellers Chords & Tabs

Version: 1 Type: Bass Tab 0 ratings
1 star 2 stars 3 stars 4 stars 5 stars
comments

Sell Out Bass Tab

-------------------------------------------------------------------------------
			     SELL OUT - Levellers
-------------------------------------------------------------------------------

Tabbed By : Genty 

Tuning:

G|---------------------------------------------------------------------------|
D|---------------------------------------------------------------------------|
A|--------------------------------5-5-5-5-5----------------------------------|
E|--5-5-5-5-5-8-8-8-8-8-3-3-3-3-3--------------------------------------------|

G|---------------------------------------------------------------------------|
D|---------------------------------------------------------------------------|
A|---------------------------------------------------------------------------|
E|--5-5-5-5-5-8-8-8-8-8-3-3-3-3-3-3-3-3-3-3----------------------------------|

G|---------------------------------------------------------------------------|
D|---------------------------------------------------------------------------|
A|--------------------------------5-5-5-5-5----------------------------------|
E|--5-5-5-5-5-8-8-8-8-8-3-3-3-3-3--------------------------------------------|
[ Tab from: http://www.guitartabs.cc/tabs/l/levellers/sell_out_btab.html ]
G|---------------------------------------------------------------------------|
D|---------------------------------------------------------------------------|
A|---------------------------------------------------------------------------|
E|--5-5-5-5-5-8-8-8-8-8-3--...down the river---------------------------------|

G|---------------------------------------------------------------------------|
D|---------------------------------------------------------------------------|
A|-----------------------------5-555555--------------------------------------|
E|--5-555555-8-888888-3-333333-----------------------------------------------|

G|---------------------------------------------------------------------------|
D|---------------------------------------------------------------------------|
A|---------------------------------------------------------------------------|
E|--5-555555-8-888888-3-33333333333333---------------------------------------|

G|---------------------------------------------------------------------------|
D|---------------------------------------------------------------------------|
A|-----------------------------5-555555--------------------------------------|
E|--5-555555-8-888888-3-333333-----------------------------------------------|

G|---------------------------------------------------------------------------|
D|---------------------------------------------------------------------------|
A|---------------------------------------------------------------------------|
E|--5-555555-8-888888-3------------------------------------------------------|

I think that's just about it throughout the song. Enjoy!
Comments