Levellers - Edge Of The World Chords & Tabs

 

Edge Of The World Chords & Tabs

Levellers Chords & Tabs

Version: 1 Type: Tab 0 ratings
1 star 2 stars 3 stars 4 stars 5 stars
comments

Edge Of The World Tab

   
#----------------------------------PLEASE NOTE---------------------------------#
#This file is the author's own work and represents their interpretation of the #
#song. You may only use this file for private study, scholarship, or research. #
#------------------------------------------------------------------------------#

Levellers - Edge Of The World
Album - Hello Pig

Intro (piano)
E |------------|------------|
A |------------|------------|
D |------------|------------|
G |------------|------------|
B |-10-12------|-10-12------|
E |-------14---|-------17---|

Main (piano)
E |----------------------------------------------------|
A |----------------------------------------------------|
D |----------------------------------------------------|
G |----------------------------------------------------|
B |-10-12------10-12------10-12------10-12-------------|
E |-------14---------17---------14---------19-17-16-17-|

Riff 1 (guitar)
E |---------------|
A |---------------|
D |---------------|
G |-4----4----4---|
B |-0-------------|
E |-2--2----2---2-|

Main (guitar)
    B A E
E |-----0-|
A |-2-0-2-|
D |-4-2-2-|
G |-4-2-1-|
B |---2-0-|
E |-----0-|

Main (violin)

E |--------------------------------------|
A |-2-----------0-2-0-2---2--------------|
D |-----1--2--1--------------1-2--4------|
G |---------------------------------1-2--|
B |--------------------------------------|
E |--------------------------------------|

Riff 1 is played through the first verse
[ Tab from: http://www.guitartabs.cc/tabs/l/levellers/edge_of_the_world_tab.html ]
At the edge of the world
Nothin' is said
Call a witness
Conversation is dead
We prayer for the common
We don't hear a word
We're all waitin' around
At the edge of the world

    B
The loneliest place i know
   A
Is my own street

An' your very own words
           E
Are the hardest to eat
         B
From the shadows of plastic
          A
Where you shout to be heard

You're just sitting around
        E
At the edge of the world

    B
The telephone's lyin'
  A
There on the floor

Somehow the moss
     E
Just creeps round the door
    B
An' everyone's cryin'
     A
From a painful blow

That came down the cables
       E
But centuries ago
      B
Three men from the east
    A
correctly concur

And left us in shackles
       E
At the edge of the world

    B
The edge of the world yeah
    A
The edge of the world

They left us in pieces
       E
At the edge of the world
    B
The edge of the world oh
    A
The edge of the world

We're all waiting in pieces
       E
At the edge of the world
    B
The edge of the world yeah
    A
The edge of the world

We're all waiting in pieces
       E
At the edge of the world

    B
The edge of the world oh
    A
The edge of the world

We're all waiting in pieces
       E
At the edge of the world
    B
The edge of the world yeah
    A
The edge of the world

We're all waiting in pieces
       E
At the edge of the world


Tabbed By ...Jay...
Send any comments to jasonroyle@hotmail.com
check my bands site out @ www.pariahmusic.co.uk
Comments