Levellers - Dirty Davey Chords & Tabs

 

Dirty Davey Chords & Tabs

Levellers Chords & Tabs

Version: 2 Type: Bass Tab 0 ratings
1 star 2 stars 3 stars 4 stars 5 stars
comments

Dirty Davey Bass Tab

LEVELLERS  -  DIRTY DAVEY
-------------------------

TEMPO=136
INTRO:

G|--------|--------|--------|--------|--------|--------|
D|-0------|-0------|-0------|-0------|-0------|-0------|
A|---0-3-R|---0-3-R|---0-3-R|---0-3-R|---0-3-R|---0-3-R|
E|--------|--------|--------|--------|--------|--------|


G|--------|--------|--------|--------||
D|--------|-----0--|--------|-----0-0||
A|-3-3-1-R|-1-3---R|-3-3-1-R|-1-3----||
E|--------|--------|--------|--------||


VERSE/CHORUS:

G|--------|--------|--------|--------|
D|-0------|-0------|--------|-----0-0|
A|---0-3-3|---0-3-3|-3-3-1-R|-1-3----|
E|--------|--------|--------|--------|
  Dirty Daveys down the front..


G|--------|--------|--------|--------|--------|--------||
D|-0------|-----0-0|-0------|-0------|-0-0----|-0------||REPEAT
A|---0-3-3|-1-3----|---3-1-3|---0-3-3|-----3-3|---3-1-0||4 TIMES
E|--------|--------|--------|--------|--------|--------||
  Kick in the head..

MIDDLE INSTRUMENTAL BIT:

G|--------|--------|--------|--------||
D|-0------|-0------|-0-0----|-0------||REPEAT
A|---3-1-3|---0-3-3|-----3-3|---3-1-0||ONCE
E|--------|--------|--------|--------||


G|--------|--------|--------|---------||
D|-0-0----|-0-0---0|-0-0----|-0-0----0||REPEAT
A|-----3-3|-----3--|-----3-3|-----03--||2 TIMES
E|--------|--------|--------|---------||


G|--------|--------|--------|--------||
D|-0------|-0------|-0-0----|-0------||REPEAT
A|---3-1-3|---0-3-3|-----3-3|---3-1-0||2 TIMES
E|--------|--------|--------|--------||


G|--------|--------|--------|---------||
D|-0-0----|-0-0---0|-0-0----|-0------0||REPEAT
A|-----3-3|-----3--|-----3-3|---1-03--||2 TIMES
E|--------|--------|--------|---------||


SLOW BIT, TEMPO=56
[ Tab from: http://www.guitartabs.cc/tabs/l/levellers/dirty_davey_btab_ver_2.html ]
   1   &    2  &   3    &    4  1      &       2     &     3  &   4
G|----------------------------|---------------------------------------------|
D|-0--------0-----------------|-0--------------0----------------------------|
A|-----------------3---------3|----------------------------3------3---------|
E|----------------------------|---------------------------------------------|
  Da-veys had it up to here,   bang-ing his head on the wall,       so hes
   1    &    2     &     3  &  4  &  5           1 & 2     &    3  &  4
G|--------------------------------------------|-----------------------------|
D|--------------------------------------------|-----------------------------|
A|-3---------3-----------1-----------R--------|--1---1----------3-----3-----|
E|--------------------------------------------|-----------------------------|
  tied his pants to the pri-son bars, and hes hung    till hes clear  of it


FAST AGAIN, TEMPO=136

G|--------------|
D|-0---0---0---0|
A|--------------|
E|--------------|
  all


      G|--------|--------|--------|--------|--------|
      D|-0------|-----0-0|-0------|-0------|-0-0----|
      A|---0-3-3|-1-3----|---3-1-3|---0-3-3|-----3-3|
      E|--------|--------|--------|--------|--------|
its a kick in the head..


G|--------|--------|--------|--------|--------|--------|
D|-0------|-0------|-0------|--------|-----0-0|-0------|
A|---3-1-0|---0-3-3|---0-3-3|-3-3-1-3|-1-3----|---0-3-3|
E|--------|--------|--------|--------|--------|--------|
    Theres a law for the rich..


G|--------|--------|--------|--------|--------|
D|-----0-0|-0------|-0------|-0-0----|-0------|
A|-1-3----|---3-1-3|---0-3-3|-----3-3|---3-1-0|
E|--------|--------|--------|--------|--------|
  tell me its the law.


      G|--------|--------|--------|--------|--------|--------|
      D|-0-0----|-----0-0|-0-0----|-----0-0|-0-0----|-----0-0|
      A|-----3-3|-1-3----|-----3-3|-1-3----|-----3-3|-1-3----|
      E|--------|--------|--------|--------|--------|--------|
Its corrupt, corrupt from the bottom..


G|--------|--------|--------|--------|--------|---------|
D|-0-0----|-----0-0|-0-0----|-0-0---0|-0-0----|-0------0|
A|-----3-3|-1-3----|-----3-3|-----3--|-----3-3|---1-03--|
E|--------|--------|--------|--------|--------|---------|
    ..tell me its the law.


G|--------|--------|--------|---------|
D|-0-0----|-0-0---0|-0-0----|-0------0|
A|-----3-3|-----3--|-----3-3|---1-03--|
E|--------|--------|--------|---------|


Where R appears there is a rest.


TABBED BY JOHN

If you have any queries or bass tab I might be interested in please E-mail me.

John Hobson    100031.1306@compuserve.com


Comments