Levellers - Battle Of The Beanfield Chords & Tabs

 

Battle Of The Beanfield Chords & Tabs

Levellers Chords & Tabs

Version: 1 Type: Bass Tab 0 ratings
1 star 2 stars 3 stars 4 stars 5 stars
comments

Battle Of The Beanfield Bass Tab

------------------------------------
LEVELLERS  -  BATTLE OF THE BEANFIELD
-------------------------------------


  1&2&3&4& 1&2&3&4& 1&2&3&4& 1&2&3&4& 1&2&3&4& 
G|--------|--------|--------|--------||
D|22200000|----0000|22200000|----0000||REPEAT
A|--------|3333----|--------|3333----||6 TIMES
E|--------|--------|--------|--------||


           1&2&3&4& 1&2&3&4& 
         G|--------|--------||
         D|2---0---|----0--0||REPEAT
         A|---2---0|3--0--3-||7 TIMES
         E|--------|--------||


  1 & 2 & 3 & 4 &  1 &2 & 3 & 4 & 
G|----------------|0----0-2---0---||
D|2-----2-3---0-3-|---2---------3-||REPEAT
A|----2-----------|---------------||ONCE
E|----------------|---------------||

[ Tab from: http://www.guitartabs.cc/tabs/l/levellers/battle_of_the_beanfield_btab.html ]
  1&2&3&4& 1&2&3&4& 
G|--------|--------||
D|2---0---|----0--0||REPEAT
A|---2---0|3--0--3-||4 TIMES
E|--------|--------||


  1&2&3&4& 1&2&3&4&
G|--------|--------||
D|22222222|22222222||REPEAT
A|--------|--------||4 TIMES
E|--------|--------||


  1&2&3&4& 1&2&3&4&
G|2---0---|----0---||
D|--------|3-------||REPEAT
A|--------|--------||4 TIMES
E|--------|--------||


  1&2&3&4& 1&2&3&4& 1&2&3&4& 1&2&3&4&
G|--------|--------|--------|--------||
D|2---0---|----0--0|2---0---|----0--0||REPEAT
A|---2---0|3--0--3-|---2---0|3--0--3-||8 TIMES
E|--------|--------|--------|--------||


TABBED BY JOHN

If you have any queries or bass tab I might be interested in please E-mail me.

John Hobson    100031.1306@compuserve.com

Comments