Levellers - Another Mans Cause Chords & Tabs

 

Another Mans Cause Chords & Tabs

Levellers Chords & Tabs

Version: 1 Type: Bass Tab 0 ratings
1 star 2 stars 3 stars 4 stars 5 stars
comments

Another Mans Cause Bass Tab

-----------------------
LEVELLERS  -  ANOTHER MANS CAUSE
---------------------------------


INTRO:
  1&2&3&4& 1&2&3&4& 1&2&3&4& 1&2&3&4& 
G|--------|--------|--------|--------|
D|--------|--------|--------|--------|
A|0-----0-|--------|--------|--------|
E|--------|3-----3-|1-----1-|3-----3-|


VERSE:
  1&2&3&4& 1&2&3&4& 1&2&3&4& 1&2&3&4& 1&2&3&4& 1&2&3&4& 1&2&3&4& 1&2&3&4
G|--------|--------|--------|--------|--------|--------|--------|--------|
D|2-------|0-------|--------|0-------|--------|--------|--------|--------|
A|0-------|--------|3-------|--------|0-----0-|--------|--------|--------|
E|--------|3-------|1-------|3-------|--------|3-----3-|1-----1-|3-----3-|


  1&2&3&4& 1&2&3&4& 1&2&3&4& 1&2&3&4& 1&2&3&4& 1&2&3&4& 1&2&3&4& 1&2&3&4
G|--------|--------|--------|--------|--------|--------|--------|--------|
D|--------|--------|--------|--------|--------|--------|--------|--------|
A|0-----0-|--------|--------|--------|0-------|--------|--------|--------|
E|--------|3-----3-|1-----1-|3-----3-|--------|3-----33|1-----1-|3-----3-|


CHORUS:
     1&2&3&4& 1&2&3&4& 1&2&3&4& 1&2&3&4& 1&2&3&4& 1&2&3&4& 1&2&3&4& 
   G|--------|--------|--------|--------|--------|--------|--------|
   D|--------|--------|--------|--------|--------|--------|--------|
   A|3-------|0---0-02|3-------|0---0-02|3-------|0---0-02|3-------|
   E|----3---|-----3--|----3---|-----3--|----3---|-----3--|----3---|


  1&2&3&4& 1&2&3&4& 1&2&3&4& 1&2&3&4& 
G|--------|--------|--------|--------|
D|--------|--------|--------|--------|
A|0-------|--------|--------|--------|
E|--------|3-------|1-------|3-----33|

VERSE:
  1&2&3&4& 1&2&3&4& 1&2&3&4& 1&2&3&4& 1&2&3&4& 1&2&3&4& 1&2&3&4& 1&2&3&4
G|--------|--------|--------|--------|--------|--------|--------|--------|
D|2-------|0-------|--------|0-------|--------|--------|--------|--------|
A|0-------|--------|3-------|--------|0-----0-|--------|--------|--------|
E|--------|3-------|1-------|3-------|--------|3-----3-|1-----1-|3-----3-|


  1&2&3&4& 1&2&3&4& 1&2&3&4& 1&2&3&4& 1&2&3&4& 1&2&3&4& 1&2&3&4& 1&2&3&4
G|--------|--------|--------|--------|--------|--------|--------|--------|
D|--------|--------|--------|--------|--------|--------|--------|--------|
A|0-----0-|--------|--------|--------|0-------|--------|--------|--------|
E|--------|3-----3-|1-----1-|3-----3-|--------|3-----33|1-----11|3-----3-|


  1&2&3&4
G|--------|
D|--------|
A|0---0---|
E|---3----|

[ Tab from: http://www.guitartabs.cc/tabs/l/levellers/another_mans_cause_btab.html ]
CHORUS:
     1&2&3&4& 1&2&3&4& 1&2&3&4& 1&2&3&4& 1&2&3&4& 1&2&3&4& 1&2&3&4& 
   G|--------|--------|--------|--------|--------|--------|--------|
   D|--------|--------|--------|--------|--------|--------|--------|
   A|3-------|0---0-02|3-------|0---0-02|3-------|0---0-02|3-------|
   E|----3---|-----3--|----3---|-----3--|----3---|-----3--|----3---|


CODA:
  1&2&3&4& 1&2&3&4& 1&2&3&4& 1&2&3&4& 1&2&3&4& 1&2&3&4& 1&2&3&4& 1&2&3&4
G|--------|--------|--------|--------|--------|--------|--------|--------|
D|--------|--------|--------|--------|--------|--------|--------|--------|
A|0--00---|--------|00-00---|--------|00-00---|--------|00-00---|--------|
E|------3-|11-133-3|------3-|11-133-3|------3-|11-133-3|------3-|11-133-3|


  1&2&3&4& 1&2&3&4& 1&2&3&4& 1&2&3&4& 1&2&3&4& 1&2&3&4& 
G|--------|--------|--------|--------|--------|--------|
D|--------|--------|--------|--------|--------|--------|
A|00-00---|--------|00-00---|--------|0--00---|0-------|
E|------3-|11-133-3|------3-|11-133-3|--------|--------|


     1&2&3&4& 1&2&3&4& 1&2&3&4& 1&2&3&4& 1&2&3&4& 1&2&3&4& 1&2&3&4& 
   G|--------|--------|--------|--------|--------|--------|--------|
   D|--------|--------|--------|--------|--------|--------|--------|
   A|3-------|0---0-02|3-------|0---0-02|3-------|0---0-02|3-------|
   E|----3---|-----3--|----3---|-----3--|----3---|-----3--|----3---|


  1&2&3&4& 1&2&3&4& 1&2&3&4& 1&2&3&4& 1&2&3&4& 1&2&3&4& 1&2&3&4& 1&2&3&4
G|--------|--------|--------|--------|--------|--------|--------|--------|
D|--------|--------|--------|--------|--------|--------|--------|--------|
A|0--00---|--------|00-00---|--------|00-00---|--------|00-00---|--------|
E|------3-|11-133-3|------3-|11-133-3|------3-|11-133-3|------3-|11-133-3|


  1&2&3&4& 1&2&3&4& 1&2&3&4& 1&2&3&4& 1&2&3&4& 1&2&3&4& 
G|--------|--------|--------|--------|--------|--------|
D|--------|--------|--------|--------|--------|--------|
A|00-00---|--------|00-00---|--------|0--00---|0-------|
E|------3-|11-133-3|------3-|11-133-3|--------|--------|


     1&2&3&4& 1&2&3&4& 1&2&3&4& 1&2&3&4& 1&2&3&4& 1&2&3&4& 1&2&3&4& 
   G|--------|--------|--------|--------|--------|--------|--------|
   D|--------|--------|--------|--------|--------|--------|--------|
   A|3-------|0---0-02|3-------|0---0-02|3-------|0---0-02|3-------|
   E|----3---|-----3--|----3---|-----3--|----3---|-----3--|----3---|

  1&2&3&4
G|--------|
D|--------|
A|0-------|
E|--------|

TABBED BY JOHN

If you have any queries or bass tab I might be interested in please E-mail me.

John Hobson    100031.1306@compuserve.com

Comments