Letter Kills - Time Marches On Chords & Tabs

 

Time Marches On Chords & Tabs

Letter Kills Chords & Tabs

Version: 2 Type: Tab 0 ratings
1 star 2 stars 3 stars 4 stars 5 stars
comments

Time Marches On Tab

tune E(6) string in D

e|------------------   |e|----------------------------|
b|------------------   |b|----------------------------|
g|------------------   |g|-------444--666--888--------|
d|--6666------------   |d|--666--444--666--888--------|
a|--6666------------   |a|--666--222--444--666--------|
d|--6666------------   |d|--666-----------------------|
  do that 8 times            do that 2 times.
palmmuted.

e|--------------------------------|
b|--------------------------------|
g|---------444444--666666--888888-|
d|--66666--444444--666666--888888-|
a|--66666--222222--444444--666666-|
d|--66666-------------------------|
 Do that 2 times

e|---------------------------------------/
b|---------------------------------------/
g|-----6-6------4-4------2-2--444--------/
d|-66--6-6--66--4-4--66--2-2--444--456---/
a|-66--4-4--66--2-2--66--0-0--222--456---/
d|-66-------66-------66------------456---/
   do it 3 times. then the fourth do..

e|---------------------------------------|
b|---------------------------------------|
g|-----6-6------4-4------2-2--444--------|
d|-66--6-6--66--4-4--66--2-2--444--444---|
a|-66--4-4--66--2-2--66--0-0--222--444---|
d|-66-------66-------66------------444---|

e|-----------------------------------/----|
b|-----------------------------------/----|
g|-----------------------------------/----|
d|-----------------------------------/--4-|
a|---2-4-6-4-2---2-4-6-4-2--2-4-6-4-2/--4-|
d|-6-----------6----------6----------/--4-|
    Do it twice, then end on..........*****

e|----------------------------------------------------|
b|----------------------------------------------------|
g|------------4444-4444----------------886-9-8-6------|
d|-6666-6666--4444-4444--2222--2222----xxx-x-x-x------|
a|-6666-6666--2222-2222--2222--2222----666-7-6-4------|
d|-6666-6666-------------2222--2222-------------------|
      do it 2 times.

e|--------------------------------|
b|--------------------------------|
g|---------444444--666666--888888-|
d|--66666--444444--666666--888888-|
a|--66666--222222--444444--666666-|
d|--66666-------------------------|
[ Tab from: http://www.guitartabs.cc/tabs/l/letter_kills/time_marches_on_tab_ver_2.html ]
e|---------------------------------------/
b|---------------------------------------/
g|-----6-6------4-4------2-2--444--------/
d|-66--6-6--66--4-4--66--2-2--444--456---/
a|-66--4-4--66--2-2--66--0-0--222--456---/
d|-66-------66-------66------------456---/
   do it 3 times. then the fourth do..

e|---------------------------------------|
b|---------------------------------------|
g|-----6-6------4-4------2-2--444--------|
d|-66--6-6--66--4-4--66--2-2--444--444---|
a|-66--4-4--66--2-2--66--0-0--222--444---|
d|-66-------66-------66------------444---|

e|-----------------------------------/----|
b|-----------------------------------/----|
g|-----------------------------------/----|
d|-----------------------------------/--4-|
a|---2-4-6-4-2---2-4-6-4-2--2-4-6-4-2/--4-|
d|-6-----------6----------6----------/--4-|
    Do it twice, then end on..........*****

e|----------------------------------------------------|
b|----------------------------------------------------|
g|------------4444-4444----------------886-9-8-6------|
d|-6666-6666--4444-4444--2222--2222----xxx-x-x-x------|
a|-6666-6666--2222-2222--2222--2222----666-7-6-4------|
d|-6666-6666-------------2222--2222-------------------|
      do it 2 times.

rythem guitar during solo

e|------------------/--------------------------------|
b|------------------/--------------------------------|
g|------------------/--------------------------------|
d|-66-9--66-9--66-9-/-66-9-444-2---------------------|
a|-66-9--66-9--66-9-/-66-9-444-2---------------------|
d|-66-9--66-9--66-9-/-66-9-444-2---------------------|
                       do this 4 times.


e|-----------------------------------/----|
b|-----------------------------------/----|
g|-----------------------------------/----|
d|-----------------------------------/--4-|
a|---2-4-6-4-2---2-4-6-4-2--2-4-6-4-2/--4-|
d|-6-----------6----------6----------/--4-|
    Do it twice, then end on..........*****

e|----------------------------------------------------|
b|----------------------------------------------------|
g|------------4444-4444----------------886-9-8-6------|
d|-6666-6666--4444-4444--2222--2222----xxx-x-x-x------|
a|-6666-6666--2222-2222--2222--2222----666-7-6-4------|
d|-6666-6666-------------2222--2222-------------------|
      do it 2 times.

end on e|----------------|
       b|----------------|
       g|----------------|
       d|--6-------------|
       a|--6-------------|
       d|--6-------------|
Comments