Letter Kills - Lights Out Chords & Tabs

 

Lights Out Chords & Tabs

Letter Kills Chords & Tabs

Version: 3 Type: Tab 0 ratings
1 star 2 stars 3 stars 4 stars 5 stars
comments

Lights Out Tab

Intro - Repeat *1:
E|---------------------------|----------------------------|
B|---------------------------|----------------------------|
G|---------------------------|----------------------------|
D|88-------------------------|----------------------------|
A|66--2-2-h-4-p-2--1-h-4-p-2-|-4-4--2-2-h-4-p-2--1-h-4-p-2|
E|---------------------------|-2-2------------------------|

E|--------------------------|
B|--------------------------|
G|--------------------------|
D|44------------------------|
A|22--2-2-h-4-p-2--1-h-4-p-2|
E|--------------------------|

Verse:
E|------------------------------|
B|------------------------------|
G|------------------------------|
D|88------44XXXX--88------44XXXX|
A|66--44--22XXXX--66--44--22XXXX|
E|----22--------------22--------|

Guitar 1:
E|-------------|-------------|-------------|------------|
B|-------------|-------------|-------------|------------|
G|-------------|-------------|-------------|------------|
D|-----8---8---|-------------|-----4---4---|-----4---4--|
A|-6-6---6---6-|-----4---4---|-2-2---2---2-|-2-2---2---2|
E|-------------|-2-2---2---2-|-------------|------------|
[ Tab from: http://www.guitartabs.cc/tabs/l/letter_kills/lights_out_tab_ver_3.html ]
Guitar 2:                                  1st ending
E|-------------|-------------|-------------|--------------|
B|-------------|-------------|-------------|--------------|
G|-------------|-------------|-------------|--------------|
D|-----4---4---|-------------|-----1---1---|---1-4-3---3-4|
A|-6-6---6---6-|-----1---1---|-2-2---2---2-|-2-------4----|
E|-------------|-2-2---2---2-|-------------|--------------|

2nd ending:
E|---------|
B|---------|
G|---------|
D|---1-4-3^|
A|-2-------|
E|---------|

Chorus *2:
E|------|------|-------|------|--------------------|------|
B|------|------|-------|------|--------------------|------|
G|------|------|-------|------|--------------------|------|
D|------|-4---4|-------|-8-6--|--------------------|-4---4|
A|6---6-|-2---2|-4---4-|-6-4-6|-6-6--6-6--6-6--4--6|-2---4|
E|4---4-|------|-2---2-|-----4|-4-4--4-4--4-4--2--4|------|

Solo:
E|---------------------------------|---------------|
B|-----11-11-13^11------11-11-13^11|---------------|
G|-----11-11-13^11------11-11-13^11|-4--6--8--10-11|
D|-/13--------------/13------------|---------------|
A|---------------------------------|-2--4--6--8---9|
E|---------------------------------|---------------|

Chorus*2
Intro*1

That's the whole song, it's really cool to play but the intro is kinda hard
Comments