Letter Kills - Lights Out Chords & Tabs

 

Lights Out Chords & Tabs

Letter Kills Chords & Tabs

Version: 2 Type: Tab 0 ratings
1 star 2 stars 3 stars 4 stars 5 stars
comments

Lights Out Tab

   
Song: Lights Out
Band: Letter Kills
Album: The Bridge
Jeff Hanson
Drop D
I found a tab on this site with a bunch of errors in it so I made a better
I'm 99% sure this is right. Sorry, no solo but I'll get one soon

Intro
|---------------------------------------------------------
|---------------------------------------------------------
|------------------------------------4-4---------------4-4
|1-1---------------4-4---------------4-4---------------4-4
|1-12-2h4p2-1h2p0-4-4-2-2h4p2-1h2p0-2-2-2-2h4p2-1h2p0-2-2
|1-1---------------4-4------------------------------------

-------------|
-------------|
-------------|
2-2h4p2-1h2p0|
-------------|
-------------|
[ Tab from: http://www.guitartabs.cc/tabs/l/letter_kills/lights_out_tab_ver_2.html ]
Verse
|-------------------------|
|-------------------------|
|----------44---44--------|
|11---44---44---44--xxxxxx|
|11---44---22---22--xxxxxx|
|11---44------------xxxxxx|

|---------------------------------|
|---------------------------------|
|----------------44------44-------|
|11--4-4-44------44--1-1-44--1--4^|
|11------44--4-4-22------22---2---|
|11------44-----------------------|
 ..      ..      ..      ..

Pre-Chorus
|----------------|
|----------------|
|--------4-------|
|4-------4-------|
|4-------2-------|
|4---------------|

Chorus
|------------------|-------------------------------|
|------------------|-------------------------------|
|--------8~--6~----|---------------4---6---8---11--|
|4-------8~--6~--6~|66-66-66-4-6---4---6---8---11--|
|4-------6~--4~--6~|66-66-66-4-6---2---4---6---9---|
|4---------------6~|66-66-66-4-6-------------------|
Comments