Letter Kills - Lights Out Chords & Tabs

 

Lights Out Chords & Tabs

Letter Kills Chords & Tabs

Version: 1 Type: Tab 0 ratings
1 star 2 stars 3 stars 4 stars 5 stars
comments

Lights Out Tab

Drop D tuning

  Intro
E|----------------------------------------------------------|
B|----------------------------------------------------------|
G|----------------------------------------------------------|
D|-1-1--------------------------4-4-------------------------|
A|-1-1--2-2-h-4-p-2--1-h-2-p-0--4-4--2-2-h-4-p-2--1-h-2-p-0-|
D|-1-1--------------------------4-4-------------------------|


E|----------------------------------------------------------|
B|----------------------------------------------------------|
G|-4-4--------------------------4-4-------------------------|
D|-4-4--------------------------4-4-------------------------|
A|-2-2--2-2-h-4-p-2--1-h-2-p-0--2-2--2-2-h-4-p-2--1-h-2-p-0-|
D|----------------------------------------------------------|

[ Tab from: http://www.guitartabs.cc/tabs/l/letter_kills/lights_out_tab.html ]
  verses
E|----------------------------------------------------------|
B|----------------------------------------------------------|
G|----------------4-4---4-4---------------------------------|
D|-1-1-----4-4----4-4---4-4---------------------------------|
A|-1-1-----4-4----2-2---2-2---------------------------------|
D|-1-1-----4-4----------------------------------------------|

  Verses: part 2
E|----------------------------------------------------------|
B|----------------------------------------------------------|
G|--------------------------4-4---------4-4-----------------|
D|-1-1---4-4--4-4-----------4-4--1-1----4-4----1-----4^-----|
A|-1-1--------4-4---4-4-----2-2---------2-2-------2---------|
D|-1-1--------4-4-------------------------------------------|

  chorus: listen for struming
E|-----------------------------------------------------------|
B|-----------------------------------------------------------|
G|-------4-------------------6---4---------------------------|
D|-4-----4-------4-----2-----6---4------9-9--9-9---9-9--7--9-|
A|-4-----2-------4-----2-----4---2------9-9--9-9---9-9--7--9-|
D|-4-------------4-----2----------------9-9--9-9---9-9--7--9-|

I haven't figured out the solo yet. sorry I hope you enjoy the song.
Comments