Letter Kills - Lights Out Chords & Tabs

 

Lights Out Chords & Tabs

Letter Kills Chords & Tabs

Version: 1 Type: Bass Tab 0 ratings
1 star 2 stars 3 stars 4 stars 5 stars
comments

Lights Out Bass Tab

   
Band - Letter KIlls
Song - Lights Out

Intro:
Gb|-------------------------|
Db|-------------------------|
Ab|-------------33----33----| x2
Eb|-00----33----------------|

Verse:
Gb|-------------------------|
Db|-------------------------|
Ab|-------------33----33----| x2
Eb|-00----33----------------|

Prechorus:
Gb|-------------------------------------|
Db|-------------------------------------|
Ab|----------22222222-33333333-33333333-| x2
Eb|-00000000----------------------------|

Chorus:
Gb|-------------------------------------|
Db|-------------------------------------|
Ab|-------------------------------------|
Eb|-55555555-55555555-88888888-88888888-|

Gb|-------------------------------------|
Db|-------------------------------------|
Ab|-------------------77775555-33333333-|
Eb|-33333333-33333333-------------------|

Gb|------------------------------|
Db|------------------------------|
Ab|------------------------------|
Eb|-55-55-5535-88888888-88888888-|

Gb|-------------------------------------|
Db|-------------------------------------|
Ab|-------------------77775555-33333333-|
Eb|-33333333-33333333-------------------|

Gb|------------------------------|
Db|------------------------------|
Ab|------------------------------|
Eb|-55-55-5535-88888888-88888888-|

Interlude:
Gb|-------------------------|
Db|-------------------------|
Ab|-------------33----33----| x2
Eb|-00----33----------------|

Verse:
Gb|-------------------------|
Db|-------------------------|
Ab|-------------33----33----| x2
Eb|-00----33----------------|

Prechorus:
Gb|-------------------------------------|
Db|-------------------------------------|
Ab|----------22222222-33333333-33333333-| x2
Eb|-00000000----------------------------|
[ Tab from: http://www.guitartabs.cc/tabs/l/letter_kills/lights_out_btab.html ]
Chorus:
Gb|-------------------------------------|
Db|-------------------------------------|
Ab|-------------------------------------|
Eb|-55555555-55555555-88888888-88888888-|

Gb|-------------------------------------|
Db|-------------------------------------|
Ab|-------------------77775555-33333333-|
Eb|-33333333-33333333-------------------|

Gb|------------------------------|
Db|------------------------------|
Ab|------------------------------|
Eb|-55-55-5535-88888888-88888888-|

Gb|-------------------------------------|
Db|-------------------------------------|
Ab|-------------------77775555-33333333-|
Eb|-33333333-33333333-------------------|

Gb|------------------------------|
Db|------------------------------|
Ab|------------------------------|
Eb|-55-55-5535-88888888-88888888-|

Bridge:
Gb|-------------------------------------------------------------------------|
Db|-------------------------------------------------------------------------|
Ab|-------------------------------------------------------------------------|
Eb|-33333333-33333333-00000000-00000000-55555555-55555555-88888888-88888888-|

Final Chorus:
Gb|-------------------------------------|
Db|-------------------------------------|
Ab|-------------------77775555-33333333-|
Eb|-33333333-33333333-------------------|

Gb|------------------------------|
Db|------------------------------|
Ab|------------------------------|
Eb|-55-55-5535-88888888-88888888-|

Gb|-------------------------------------|
Db|-------------------------------------|
Ab|-------------------77775555-33333333-|
Eb|-33333333-33333333-------------------|

Gb|------------------------------|
Db|------------------------------|
Ab|------------------------------|
Eb|-55-55-5535-88888888-88888888-|

Interlude:
Gb|-------------------------|
Db|-------------------------|
Ab|-------------33----33----| x2
Eb|-00----33----------------|

End:
Gb|----|
Db|----|
Ab|----|
Eb|-00-|
Comments