Letter Kills - Hold My Heart Chords & Tabs

 

Hold My Heart Chords & Tabs

Letter Kills Chords & Tabs

Version: 2 Type: Tab 0 ratings
1 star 2 stars 3 stars 4 stars 5 stars
comments

Hold My Heart Tab

   
----------------------------------------------------------------------------
		     Hold my Heart pt.1- Letter Kills
----------------------------------------------------------------------------
Tabbed by: radmall
Email:abman900@msn.com
Tuning:eb,Bb,Gb,Db,Ab,eb

verse/intro
eb|-------------------------------------------------------------------------|
Bb|-------------------------------------------------------------------------|
Gb|-----9---9---------9-------9------9--9----------9--9---------------------|
Db|---7-----7--7---7--7----7--7----7----7--7----7-----7--7------------------|
Ab|-9------------9-------8-------0------------0-----------------------------|
Eb|-------------------------------------------------------------------------|

solo thing after first verse
eb|-0--------------------------------7--9b10--------------------------|
Bb|-10-----10--------10-----------10----------------------------------|
Gb|-9----------9--6------9--7--6--------------------------------------|
Db|-7-----------------------------------------------------------------|
Ab|-0-----------------------------------------------------------------|
Eb|----12/------------------------------------------------------------|

repeat verse

chorus (figure out struming)
eb|--x---x---x---x---x-x-x---------------------|
Bb|--x---x---x---x---x-x-x---------------------|
Gb|--x---x---x---x---x-x-x---------------------|
Db|--4---6---7---7---7-7-7---------------------|
Ab|--4---6---7---7---7-7-7---------------------|
Eb|--2---4---5---9---5/4\5---------------------|

solo after first chorus
[ Tab from: http://www.guitartabs.cc/tabs/l/letter_kills/hold_my_heart_tab_ver_2.html ]
eb|--------------12-------------------------12----------------------------|
Bb|-/10--10-9-10----10-9-10-----/10--10-9-10---10-9-10--------------------|
Gb|-------------------------6-------------------------9-7-6-7b-6----------|
Db|--------------------------------------------------------------9-9h12-7-|
Ab|-----------------------------------------------------------------------|
Eb|-----------------------------------------------------------------------|

repeat verse

repeat chorus

next solo thing
eb|---------------------------------------|
Bb|----------------10--10101010h121212-10-|
Gb|--9-7777h999-6-------------------------| x2
Db|---------------------------------------|
Ab|---------------------------------------|
Eb|---------------------------------------|

play this to the end
eb|-------------------------------------------------------------------------|
Bb|--------0-----2h3p2--0-2---------0-----2h3p2-0-2--------0-----2h3p2-0-2--|
Gb|-------------------------2----------------------2----------------------2-|
Db|----2-----2------------------2-----2----------------2-----2--------------|
Ab|--0---0----0-------------------------------------------------------------|
Eb|---------------------------3---3-----3------------2---2-----2------------|

                                               end on
|-------------------------------------------   --0--|
|-------------------------------------------   --0--|
|---2-2----2-2------------------------------   --2--|
|---2-2----2-2------------------------------   --2--|
|-------------------------------------------   --0--|
|-1------3----------------------------------   --0--|
Comments