Letter Kills - Hold My Heart Chords & Tabs

 

Hold My Heart Chords & Tabs

Letter Kills Chords & Tabs

Version: 1 Type: Tab 0 ratings
1 star 2 stars 3 stars 4 stars 5 stars
comments

Hold My Heart Tab

Tabber:Chicken_leg
e-mail: Leg_chicken@hotmail.com

Band:  Letter Kills
Song:  hold my heart part 2
Album:  The Bridge
transcribed by:Chad Mcpherson

Drop D tuning. 
___________________________________________________________

Intro/Verse 0:00 - 0:58(guitar 1)

E|--------------------------------------------------------|
B|--------------------------------------------------------|
G|---4-----4-----------4------4-----------4------4--------|
D|--2-----2-----2-----2-----2-----2-----2------2-----2----|
A|-2-----2-----2----3-----3-----3-----4------4-----4------|
D|--------------------------------------------------------|

E|--------------------------------------------------------|
B|--------------------------------------------------------|
G|--------------------------------------------------------|
D|---9------7-------------7-----7------------6------6-----|
A|--7-----7-----7-------7-----7-----7------7------7-----7-|
D|-6----6------6------7-----7------7-----6------6-----6---|
[ Tab from: http://www.guitartabs.cc/tabs/l/letter_kills/hold_my_heart_tab.html ]
E|--------------------------------------------------------|
B|--------------------------------------------------------|
G|----------------------2-----2---------------------------|
D|-----4-----4--------2-----2----2------------------------|
A|---4-----4----4---2-----2-----2-------------------------|
D|-4-----4-----4------------------------------------------|

intro Solo 0:14 - 0:28 (Guitar 2)

E|--------------------------------------------------------|
B|-----------12----12-------------------------------------|
G|--13^------------13-13h14p13-11-13-11-9-----------------|
D|-----------------------------------------9---7---9------|
A|--------------------------------------------------------|
D|--------------------------------------------------------|

E|--------------------------------------------------------|
B|--------------------------------------------------------|
G|-9-----------------9---------------3---5---3------------|
D|----7---6---7----------5---3---5------------------------|
A|--------------------------------------------------------|
D|--------------------------------------------------------|
___________________________________________________________
Comments