Letter Kills - Hold My Heart Chords & Tabs

 

Hold My Heart Chords & Tabs

Letter Kills Chords & Tabs

Version: 1 Type: Bass Tab 0 ratings
1 star 2 stars 3 stars 4 stars 5 stars
comments

Hold My Heart Bass Tab

Band - Letter KIlls
Song - Hold My Heart

Tuning: Drop D


  Intro/verses:
e|-------------------------------------------------------|
B|-------------------------------------------------------|
G|---4---4--4----4------4-----4-----4------4-----4-------|
D|--2---2-------2-----2-----------2------2---------------|
A|-2---2---2--3-----3------3----4------4-----4-----------|
D|-------------------------------------------------------|

e|-------------------------------------------------------|
B|-------------------------------------------------------|
G|-------------------------------------------------------|
D|---9------7---7--------7-----7-----7------6------6---6-|
A|--7-----7------------7-----7------------7------7-------|
D|-6----6-----6------7-----7------7-----6------6-----6---|

e|-------------------------------------------------------|
B|-------------------------------------------------------|
G|----------------------2-----2----2---------------------|
D|-----4-----4---4----2-----2----------------------------|
A|---4-----4--------2-----2-----2------------------------|
D|-4-----4-----4-----------------------------------------|

   Solo 1:
e|-------------------------------------------------------|
B|-----------12----12------------------------------------|
G|--13^------------13-13h14p13-11-13-11-9----------------|
D|-----------------------------------------9---7---9-----|
A|-------------------------------------------------------|
D|-------------------------------------------------------|
[ Tab from: http://www.guitartabs.cc/tabs/l/letter_kills/hold_my_heart_btab.html ]
  Chorus:
e|------0------------------------------------0------------|
B|---------0------------0----------------------0--------0-|
G|------------------8---------------------------------8---|
D|--7----------9-------------11--9--7----7---------9------|
A|--7----------9-------------11--9--7----7---------9------|
D|--7----------9-------------11--9--7----7---------9------|

e|-------------------------------------------------------|
B|-------------------------------------------------------|
G|--9----------------------------------------------------|
D|--9----------------------------------------------------|
A|--7----------------------------------------------------|
D|--7----------------------------------------------------|

  Solo 2:
e|-------------------------------------------------------|
B|-------------------------------------------------------|
G|---------9---------------------------------------------|
D|------9----9---7---6--4--7--7h9-6-6-4-4-2--------------|
A|---7---------------------------------------------------|
D|-6-----------------------------------------------------|

e|-------------------------------------------------------|
B|---------------------------9^----12--9-----------------|
G|----------11-9-----9--11----------------11--9--11--9^--|
D|--9h10-------------------------------------------------|
A|-------------------------------------------------------|
D|-------------------------------------------------------|

e|-------------------------------------------------------|
B|-------------------------------------------------------|
G|-9h11p9---------9---11^-9-11-9-------------------------|
D|-----------9-11----------------------------------------|
A|-------------------------------------------------------|
D|-------------------------------------------------------|

End.
Comments