Letter Kills - Dont Believe Chords & Tabs

 

Dont Believe Chords & Tabs

Letter Kills Chords & Tabs

Version: 2 Type: Tab 0 ratings
1 star 2 stars 3 stars 4 stars 5 stars
comments

Dont Believe Tab

i'm only 15 and this is my first tab so yea hope it's accurate
email me if you have any corrections memoman5678@yahoo

Drop D tuning

(Intro x2)
e|-------------------------------------------------|
B|-------------------------------------------------|
G|-------------------------------------------------|
D|------------------------------5b-----------------|
A|--------------6b---------------------------------|
D|5-3-5-8-7-3-5----5-3-5-8-7-3-5-------------------|

(Verse x2)
e|--------------------------------------------------------|
B|--------------------------------------------------------|
G|--------------------------------------------------------|
D|5-5x-1-1x------------5-5x-1-1x--------------------------|
A|5-5x-1-1x------------5-5x-1-1x--------------------------|
D|5-5x-1-1x-5-7-8-10-8-5-5x-1-1x-7-8-10-8-----------------|

(Pre-Chorus)figure out strumming
e|------------------------------------|
B|------------------------------------|
G|------------------------------------|
D|3-4-8-------------------------------|
A|3-4-8-------------------------------|
D|3-4-8-------------------------------|
[ Tab from: http://www.guitartabs.cc/tabs/l/letter_kills/dont_believe_tab_ver_2.html ]
(Chorus x2)figure out strumming
e|---------------------------------------|
B|---------------------------------------|
G|----8-7--------------------------------|
D|5-8-8-7-3-1-5~-------------------------|
A|5-8-6-5-3-1-5~-------------------------|
D|5-8-----3-1-5~-------------------------|

(Verse x2)

(Pre-Chorus x1)

(Chorus x2)

(Intro x4)

(Solo)
e|---------------------------------------------------------------------|
B|15b-15-15-15-15-13b-13-13-15-13------------------------------13-15b--|
G|-------------------------------12--------12b--------12b-12-15--------|
D|---------------------------------12-14-15---12-14-15-----------------|
A|---------------------------------------------------------------------|
D|---------------------------------------------------------------------|

e|--------------------------------------------|
B|15-13---------------------------------------|
G|-----15-12--------12b---------------12------|
D|----------12-14-15---12-14-15-15-15-----15--|
A|--------------------------------------15----|
D|--------------------------------------------|

(Chorus x3)

(Ending Chords)
e|-------------------------------------|
B|-------------------------------------|
G|-------------------------------------|
D|1-3-4-5------------------------------|
A|1-3-4-5------------------------------|
D|1-3-4-5------------------------------|
Comments