Letter Kills - Dont Believe Chords & Tabs

 

Dont Believe Chords & Tabs

Letter Kills Chords & Tabs

Version: 1 Type: Tab 0 ratings
1 star 2 stars 3 stars 4 stars 5 stars
comments

Dont Believe Tab

Letter Kills - Don't Believe

you can go to www.letterkills.com  to here the song and listen the beat.


[ Tab from: http://www.guitartabs.cc/tabs/l/letter_kills/dont_believe_tab.html ]
---------------------------------------------------------------|
---------------------------------------------------------------|
---------------------------------------------------------------|    2x
--------------------------------------------------2--2---------|
-----------------------3--3------------------------------------|
--2--2-0-2-5-2-0-2--2--------2--2-0-2-5-2-0-2--2---------------|

---------------------------------------------------------------|
---------------------------------------------------------------|
---------------------------------------------------------------|
---------------------------------------------------------------|
---2---2-2---------0-0-2---2-2---------------------------------|
---2---2-2---------0-0-2---2-2---------------------------------|
Comments