Letter Kills - Dont Believe Chords & Tabs

 

Dont Believe Chords & Tabs

Letter Kills Chords & Tabs

Version: 1 Type: Bass Tab 0 ratings
1 star 2 stars 3 stars 4 stars 5 stars
comments

Dont Believe Bass Tab

   
Band - Letter KIlls
Song - Don't Believe

Intro:
G |--------------|
D |--------------|
A |--------------| x4
E |--1-33333333--| 

Verse:
G |-------|
D |-------|
A |-------| x8
E |-1-33-|

Prechorus:
G |-------------------|
D |-------------------|
A |-------------------|
E |-11111111-22222222-|

Chorus:
G |-----------------------------|
D |-----------------------------|  
A |------1111-33333333----------| x2
E |-3333---------------11111111-|

Verse:
G |-------|
D |-------|
A |-------| x8
E |-1-33-|

Chorus:
G |-------------------|
D |-------------------|
A |-------------------|
E |-11111111-22222222-|

Chorus:
G |-----------------------------|
D |-----------------------------|  
A |------1111-33333333----------| x2
E |-3333---------------11111111-|
[ Tab from: http://www.guitartabs.cc/tabs/l/letter_kills/dont_believe_btab.html ]
Bridge:
G |----------------|      |--------------------------------|
D |------------11--|      |-----------11-11111111----------|
A |-----1---------| x3   |-----1-----------------33333333-|
E |-3313-31-33-----|      |-3313-31-33---------------------|

G |----------|      |----------------------------|
D |----------|      |----------11111111----------|
A |-----1----| x2   |-11111111----------33333333-|
E |-3313-31--|      |----------------------------|

G |-------------------------|
D |---------------11111111~-|
A |-----1----1111-----------|
E |-3313-31-----------------|

Chorus:
G |-----------------------------|
D |-----------------------------|  
A |------1111-33333333----------| x2
E |-3333---------------11111111-|

Outro:
G |--------------------|
D |--------------------|
A |-------------111----|
E |-333-111-333-----33-|

End.
Comments