Letter Kills - Clock Is Down Chords & Tabs

 

Clock Is Down Chords & Tabs

Letter Kills Chords & Tabs

Version: 2 Type: Tab 0 ratings
1 star 2 stars 3 stars 4 stars 5 stars
comments

Clock Is Down Tab

Band:  Letter Kills
Song:  Clock Is Down


Tuning: Drop D

  Intro:		(Guitar 1)
e|-----------------------------------------------------|
B|---------------------11--11--------------------------|
G|-------12-12-------------------------12-12-----------|
D|10-10----------10-------------10------------10-------|
A|-----------------------------------------------------|
D|-----------------------------------------------------|


e|-----------------------------------------------------|
B|------------------11--11---------13------------------|
G|-------12-12-----------------------------------------|
D|10-10---------10------------10-----------------------|
A|-----------------------------------------------------|
D|-----------------------------------------------------|

			(Guitar 2)
e|-----------------------------------------------------|
B|-----------------------------------------------------|
G|-5---------------------------------------------------|
D|-5------6--------------------------------------------|
A|-3------6--------------------------------------------|
D|--------6--------------------------------------------|


Verse: (same as intro on both guitars only palm muted.)
[ Tab from: http://www.guitartabs.cc/tabs/l/letter_kills/clock_is_down_tab_ver_2.html ]
  Bridge:  Guitar 2|  Guitar 1
e|-----------------|----------1--------------------------1--------|
B|-----------------|-----1-------1----1---------------1----1----1-|
G|-----------------|--2------------2---------------1----------1---|
D|-3--------6------|-----------------------x2---------------------| x2
A|-3--------6------|----------------------------------------------|
D|-3--------6------|----------------------------------------------|

  Chorus:                     (Guitar 1)
e|-----------------------------------------------------------------|
B|-----------------------------------------------------------------|
G|-12--13---15----13-----------12--13---15---13-----17----15----13-|
D|---------------------x3------------------------------------------| x1
A|-----------------------------------------------------------------|
D|-----------------------------------------------------------------|

			(Guitar 2)
e|-----------------------------------------------------|
B|-----------------------------------------------------|
G|------5----------3-----------------------------------|
D|-1----5-----5----3-----------------------------------|
A|-1----3-----5----1-----------------------------------|
D|-1----------5----------------------------------------|

Interlude: (same as guitar 2 verses.)

End.
Comments