Letter Kills - Clock Is Down Chords & Tabs

 

Clock Is Down Chords & Tabs

Letter Kills Chords & Tabs

Version: 1 Type: Tab 0 ratings
1 star 2 stars 3 stars 4 stars 5 stars
comments

Clock Is Down Tab

CLOCK IS DOWN - LETTER KILLS

Tabbed by: Motion City Soundtrack
Email:

THIS SONG IS AMAZING! DOWNLOAD IT OR BUY THE ALBUM RIGHT NOW!

Tuning: Standard
[ Tab from: http://www.guitartabs.cc/tabs/l/letter_kills/clock_is_down_tab.html ]
e|----------------------------------------------------------------------------|
B|-----------------10-10-10---------------------------------------------------|
G|--------11-11-11----------11-11-11-11---------------------------------------|
D|-9-9-9----------------------------------------------------------------------|
A|----------------------------------------------------------------------------|
E|----------------------------------------------------------------------------|

e|----------------------------------------------------------------------------|
B|----------------10-10-10-13-13-13-13----------------------------------------|
G|-------11-11-11-------------------------------------------------------------|
D|-9-9-9----------------------------------------------------------------------|
A|----------------------------------------------------------------------------|
E|----------------------------------------------------------------------------|
Comments