Letter Kills - Clock Is Down Chords & Tabs

 

Clock Is Down Chords & Tabs

Letter Kills Chords & Tabs

Version: 1 Type: Bass Tab 0 ratings
1 star 2 stars 3 stars 4 stars 5 stars
comments

Clock Is Down Bass Tab

Band:  Letter Kills
Song:  Clock Is Down

Tuning: Drop D

  Intro/verses/interlude:
G|-------------------------------|
D|-------------------------------|
A|-------------------------------|
D|--10---6-----------------------|

[ Tab from: http://www.guitartabs.cc/tabs/l/letter_kills/clock_is_down_btab.html ]
  Bridge:
G|-------------------------------|
D|-------------------------------|
A|-------------------------------|
D|--3----6------3---6------------|


  Chorus:
G|-------------------------------|
D|-------------------------------|
A|----3---------1----------------|
D|-1------5----------------------|

End.
Comments