Letter Day Story - Sama Sama Chords & Tabs

 

Sama Sama Chords & Tabs

Letter Day Story Chords & Tabs

Version: 2 Type: Tab

Sama Sama Tab

  sama sama by letter day story
   vocalist:  ervin
   drum:      jonathan
   base:     athony
   lead:      erick
   rythm:     charles 
                     
                 sna mqus2ha nyo 2 pinag hrapan nmin 2 kung wala 
                kau sa tono o timing panoorin nyo ung sama sama 
                by chiil band.....
    
[ Tab from: http://www.guitartabs.cc/tabs/l/letter_day_story/sama_sama_tab_ver_2.html ]
        e-------------------------7p5p4-7p5p4-5h7p5-7p5p4-7p5p4-4h5h7~-]
        b---5/7~-5/7~--10~-7~-5/7~-------------------------------------]
        g--------------------------------------------------------------]
        d--------------------------------------------------------------]
        a--------------------------------------------------------------]
        e--------------------------------------------------------------]
 
        e-------------------------------------------10---10h12p10-------]
        b------------------------------9/11-9/11-10b--10b--------1210h12]
        g------------------------------x/x--x/x-------------------------]
        d------------------------------7/9--7/9-------------------------]
        a-0020040050070090010-00120014~~--------------------------------]
        e---------------------------------------------------------------]

        e-----11-11g8--8------------------------------------------------]
        b-8h10-------10-10-8--------------------------------------------]
        g-------------------9-7-7-7h9p7-7-9/11,11,11,11,-11p9-11p9-7~~~~]
        d----------------------9-9-----9--------------------------------]
        a---------------------------------------------------------------]
        e---------------------------------------------------------------]