Lets Go Bowling - Pinstripe Suit Chords & Tabs

 

Pinstripe Suit Chords & Tabs

Lets Go Bowling Chords & Tabs

Version: 1 Type: Bass Tab 0 ratings
1 star 2 stars 3 stars 4 stars 5 stars
comments

Pinstripe Suit Bass Tab

                               Pinstripe Suit

by Let's Go Bowling
bass tab by pancreas@vt.edu

*Timing Is Rough, Listen to Song*

Intro Part

G----------|------------------------------------
D----------|------------------------3-----------
A---1------|------3--------3----1-4---4----3---1
E---------4|--1-4---4--1-4---4-----------4---3--

G-------------------------------------------
D----------------------------------1-1------
A-------3--------3--------3------3-----3-1--
E---1-4---4--1-4---4--1-4---4--4-----------1

Here He Comes Down The Street

G------------------------------
D------------------------------
A-----3---1-1------3--------3--
E---4---4------1-4---4--1-4---4

With His Wingtips On His Feet

G-----------------------
D-------3-3p1-----------
A---1-4--------3-4-3-1-3
E-----------------------

Tommy Gun At His Side
[ Tab from: http://www.guitartabs.cc/tabs/l/lets_go_bowling/pinstripe_suit_btab.html ]
G-------------------
D-------------------
A-------3--------3--
E---1-4---4--1-4---4

Just One Thing On His Mind

G-----------------------
D-------3-3p1-----------
A---1-4--------3-4-3-1-3
E-----------------------

(Continue This Pattern Untill This Solo)

G--------------------8-9-10
D------------8----10-------
A---8-11-8-8---11----------
E--------------------------

(After Keyboard Solo)

G------------------------------------------------
D---3-3-3---3--3--2-2-2---2-2-1-1-1---1-0--------
A---------3-------------3-----------3-----3--1--3
E------------------------------------------------

G-------------------------------------------------
D---3-3-3---3--3--2-2-2---2-2-1-1-1---1--2-2-2---2
A---------3-------------3-----------3----------3--
E-------------------------------------------------

Although The Bass Never Seems To Play Exactly The Same Thing Each Time,
It Is Always Similar To What Is Above.

Corrections - pancreas@vt.edu


Comments