Lets Go Bowling - Lets Go Bowling Chords & Tabs

 

Lets Go Bowling Chords & Tabs

Lets Go Bowling Chords & Tabs

Version: 2 Type: Bass Tab 0 ratings
1 star 2 stars 3 stars 4 stars 5 stars
comments

Lets Go Bowling Bass Tab

Song: Let's Go Bowling (L.G.B.)
Band: Let's Go Bowling
Album: Music To Bowl By / Freeway Lanes
Tabbed By: Adam Marish


verse

G:--------------------------------------------------------
D:-----5-6-5--------5-66-5--------------------------------
A:-3-6-------6--3-6--------6------5-6-5--------5-66-5-----
E:----------------------------3-6-------6--3-6--------6---

chorus
                                                 
G:-------------------------5-5------55--------
D:-------3-3------3------5--------5----5------
A:-----3--------3----3-6------3-6-------3-----
E:-1-4------1-4-------------------------------

G:----------------------------------------------- then
D:-------3-3------3----------------------5------- verse
A:-----3--------3--------5---------5-------5----- begins
E:-1-4------1-4------3-6---3---3-6---33----------

major chorus (not on Freeway Lanes)
[ Tab from: http://www.guitartabs.cc/tabs/l/lets_go_bowling/lets_go_bowling_btab_ver_2.html ]
G:-------5-5--------5------------------------------
D:---2-5--------2-5----------5-5--------55---------
A:-3----------3----------2-5--------2-5----5-2-----
E:---------------------3----------3----------------

G:-------5-5--------5---------------------------- then
D:---2-5--------2-5------------------------------ major
A:-3----------3----------0-3------0-3----1-2----- verse
E:---------------------1-----1--1-----1---------- begins

major verse (not on Freeway Lanes)

G:-------5-2----------55-2--------------------------------    
D:---2-5-----5----2-5------5--------5-2----------55-2-----
A:-3------------3---------------2-5-----5----2-5------5---
E:----------------------------3------------3--------------

That Is How It Goes Folks...I Hope You Like It.  Although
It's Very Simple, It's One Of My Favorite Bass Lines...
It's Really Cool And Really Fun To Play.

Adam Marish
The Royal Noise Brigade - Pa Ska/Swing At It's Finest
www.come.to/royalnoisebrigade


If You Want To Know How To Play The Horn Parts On Bass,
Email Me.
Comments