Let It Burn - Tale Of Two Cities Chords & Tabs

 

Tale Of Two Cities Chords & Tabs

Let It Burn Chords & Tabs

Version: 1 Type: Tab 0 ratings
1 star 2 stars 3 stars 4 stars 5 stars
comments

Tale Of Two Cities Tab

   
Let It Burn - Tale Of Two Cities

By: Steve karpsmom@att.net 

_ -palm mute 
/ - slide up 
\ - slide 
() - play second time around 
b - bend note so it sounds two fret higher 9 to 11 etc. 

no chords are exact number of strums 

Gtr. A intro/Chorus 

Part 1 Part 2 
e|---X3--------|-----| 
B|-------------|-----| 
G|-4-2-4-2-4---|-7---| 
D|-4-2-4-2-4-2-|-7-7-| 
A|-2-0-2-0-2-2-|-5-7-| 
E|-----------0-|---5-| 

Gtr. B intro 

Part 1 Part 2 
e|-------------|-----| 
B|-------------|-----| 
G|-------------|-7---| 
D|-9/----------|-7-7-| 
A|-9/----------|-5-7-| 
E|-7/----------|---5-| 

Gtr. A verse 
e|----X2-----------| 
B|-----------------| 
G|-4---7---4---7---| 
D|-4-2-7-2-4-2-7-2-| 
A|-2-2-5-2-2-2-5-2-| 
E|---0---0---0---0-| 

Then Chorus 

Gtr. B verse 
e|---X3----|--repeat chord-| 
B|---------|-12------------| 
G|---9-7---|-11------------| 
D|-9-9-7-2-|--9------------| 
A|-9-7-5-2-|---------------| 
E|-7-0---0-|---------------| 

Gtr. B Chorus 
e|----X3-------|-----| 
B|-------------|-----| 
G|-----------_-|-7---| 
D|-9-7-9-7-9-9-|-7-7-| 
A|-9-7-9-7-9-7-|-5-7-| 
E|-7-5-7-5-7-0-|---5-| 

Gtr. A Breakdown 
[ Tab from: http://www.guitartabs.cc/tabs/l/let_it_burn/tale_of_two_cities_tab.html ]
e|---|---X2-----|-pick--|----X2--------------------------------| 
B|---|----------|-slide-|------------_---_---_---_-----_-------| 
G|-9-|-------\7-|-------|-----7-9-11-9-9-9-9-9-9-9-9-(-9-9-9-)-| 
D|-9-|-\7-\4-\7-|-------|-7-4-7-9-11-9-9-9-9-9-9-9-9-(-9-9-9-)-| 
A|-7-|-\7-\4-\5-|-------|-7-4-5-7--9-7-7-7-7-7-7-7-7-(-7-7-7-)-| 
E|---|-\5-\2----|-------|-5-2----------------------------------| 

Gtr. B Breakdown 

e|---|-------|----------|------X2------------------------------| 
B|---|-------|-_--------|------------_---_---_---_-----_-------| 
G|-9-|-----7-|-7-7------|-----7-9-11-9-9-9-9-9-9-9-9-(-9-9-9-)-| 
D|-9-|-7-4-7-|-7-7------|-7-4-7-9-11-9-9-9-9-9-9-9-9-(-9-9-9-)-| 
A|-7-|-7-4-5-|-5-5------|-7-4-5-7--9-7-7-7-7-7-7-7-7-(-7-7-7-)-| 
E|---|-5-2---|----------|-5-2----------------------------------| 

Then Do The Verse, then the chorus 

Outro Gtr. A 
e|----------------------------------------------------------| 
B|------------7--7-------------9-10------------------7------| 
G|------------9--9b------------9--9-10-9-------------9b-7---| 
D|-9-7-9-7-9---------9-7-9-7-9-----------9-9-7-9-7-9----7-7-| 
A|-9-7-9-7-9---------9-7-9-7-9-------------9-7-9-7-9----5-7-| 
E|-7-5-7-5-7---------7-5-7-5-7-------------7-5-7-5-7------5-| 

Outro Gtr. B is the same as Gtr. B chorus
Comments